Guitar Tabs, Chords and Lyrics
Login is temporarily disabled for some users. Do not panic. Will be back in an hour or two. DO NOT REREGISTER!!


Lang zullen ze leven  Gorki

***************************************************************************
Lang zullen ze Leven
by Gorki
***************************************************************************
Transcribed by Soenen Martijn (martijnsoenen@hotmail.com) 20:01 29/01/2000
NOTES: Dit is een tab om dit lied op een akoestische gitaar te spelen. Het is
een eigen interpretatie en een ge√¯mproviseerde manier om het te spelen. De riff
van de intro is dezelfde als die voor de verzen. Je kan kiezen tussen twee riffs
of afwisselen. The choice is yours. Ik heb er ook een suggestie bijgestopt om
het lied te eindigen. Best met A barré denk ik.
CHORDS used in this song:
[EADGBEEADGBE]  
E022100ofG 779xxx
B barré 799877
[G#m]A barré[466544] 577655
INTRO:
[E] [A] [E] [A] 
 
 E |------------------------------------| ------------------------------------|
 B |------------------------------------| ------------------------------------|
 G |------------------------------------| --1-1-1-1-1-x-x--6-6-6-6-6-x-6-6-6--|
 D |--9-9-9-9-9-x-x--7-7-7-7-7-x-7-7-7--| --2-2-2-2-2-x-x--7-7-7-7-7-x-7-7-7--|
 A |--7-7-7-7-7-x-x--7-7-7-7-7-x-7-7-7--| --2-2-2-2-2-x-x--7-7-7-7-7-x-7-7-7--|
 E |--7-7-7-7-7-x-x--5-5-5-5-5-x-5-5-5--| of: --x-x-x-x-x-x-x--5-5-5-5-5-x-5-5-5--|

VERSE:
[E]________________________________[A]________
CHORUS:
[B] [G#m] [A]  
 
 E |------------------------------------|
 B |------------------------------------|
 G |--8-8-8-8-8-8--5-5-5--6-6-6---------|
 D |--9-9-9-9-9-9--6-6-6--7-7-7---------|
 A |--9-9-9-9-9-9--6-6-6--7-7-7---------|
 E |--7-7-7-7-7-7--4-4-4--5-5-5---------|

[B]_____________________________________________[G#m]__________________
Deze riff kan je gebruiken in de overgang van Chorus naar Verse
[B] [G#m] [A]  
 
 E |--------------------------------------|
 B |--------------------------------------|
 G |--8-8-8---5-5-5--6-6-(6-6-6-6-6)------|
 D |--9-9-9---6-6-6--7-7-(7-7-7-7-7)------|
 A |--9-9-9---6-6-6--7-7-(7-7-7-7-7)------|
 E |--7-7-7---4-4-4--5-5-(5-5-5-5-5)------|

B G#m A X3
______________
SOLO
OUTRO:
Deze riff kan je gebruiken om te eindigen:
[B] [G#m] [A]  
 
 E |----------------------------------5----|
 B |----------------------------------5----|
 G |--8-8-8---5-5-5--6-6-(6-6-6-6-6)--6----|
 D |--9-9-9---6-6-6--7-7-(7-7-7-7-7)--7----|
 A |--9-9-9---6-6-6--7-7-(7-7-7-7-7)--7----|
 E |--7-7-7---4-4-4--5-5-(5-5-5-5-5)--5----|

***************************************************************************
More Tabs At: http://members.fortunecity.com/dmedm/gitaar/guitar.htm
***************************************************************************

Important: The song above is NOT stored on the Chordie server. The original song is hosted at www.guitartabs.cc. Chordie works as a search engine and provides on-the-fly formatting. Chordie does not index songs against artists'/composers' will. To remove this song please click here.

Text color:
Chord color:
Chord grids: 
Font size:    
Page size: 

A B E G#m
Rate #1 of 4 versions

Login - add to songbook

SHARE PAGE  



You need to log in to post comments