Guitar Tabs, Chords and Lyrics
Update 25:10. 13:00. Site is back up running again. Songbooks are recovered. Woring on getting search back up..


Termites Hollow   Grade

 
 E|------------------|-------------------------------------|
 B|-10-VOL-8-7-8-7-5-|---7-5-55----8-7-77----10-10-10-10---|
 G|------------------|-7---------7---------7---------------|
 D|------------------|-------------------------------------|
 A|------------------|-------------------------------------|
 D|------------------|-------------------------------------|

 


 Start here when playing Riff 1 and


 skip the volume raise


 


 Riff 2


 

 
 E|--------------------------------------------|
 B|-5555-7777-5555-7777-5555-8888-7777-8888-10-| Play the 10
 G|--------------------------------------------| about 8 times
 D|--------------------------------------------|
 A|--------------------------------------------|
 D|--------------------------------------------|
 E|-------------|
 B|---55-77-88--|
 G|-7-----------|
 D|-------------|
 A|-------------|
 D|-------------|

 


 


 Riff 3


 

 
 E|--------------------------------------------|
 B|--------------10-10--10-10----10-10--10-10--|
 G|--------------------------------------------|
 D|-2~~-4~-0~~-5~-------------5~---------------|
 A|-2~~-4~-0---5~-------------5~---------------|
 D|-0~~-4~-0~~-5~-------------5~---------------|

 


 


 Acoustic Riff


 

 
 E|----------------------------|------------------|
 B|-[---7~]--[---8~]--[---10~]-|-10-8-7------10~~-|
 G|-[77~--]--[77~--]--[77~---]-|--------7~~-------|
 D|----------------------------|------------------|
 A|----------------------------|------------------|
 D|----------------------------|------------------|


Important: The song above is NOT stored on the Chordie server. The original song is hosted at www.guitartabs.cc. Chordie works as a search engine and provides on-the-fly formatting. Chordie does not index songs against artists'/composers' will. To remove this song please click here.

This song is displayed as text-only. Transposing and tuning is only available for chordpro-songs.
Rate #0 of 1 versions

Login - add to songbook

SHARE PAGE  




You need to log in to post comments