Guitar Tabs, Chords and Lyrics
Server problems seems to be fixed. Chordie has been experiencing problems with songs disappearing. These issues now seems to be fixed, but still verifying the fix. If you find anything strange, please email admin@chordie.com.


River's Edge  Great Lake Swimmers

 
 -------------------------------------------------------------------------------

River's Edge - Great Lake Swimmers
 
 -------------------------------------------------------------------------------

Tabbed by: opensky_94
Email: justjane675@gmail.com
This song is pretty simple with only picking three chords and you can strum it if you
want. I put two parts to every chord, but I also heard another part on D. The last parts
on every chord are mostly meant to be played when the song gets more intense and higher.
It's a fun experimental song, try out different way to play it! :)
Tuning: Standard
[D] [C] [G] 
 
 e|---------------------2-2--------------------------------------------------------|
 B|------3-3-----3-3---------------------1-1---------------------------------------|
 G|-----2-2-----2-2----2-2-------0-0----0-0-------------------0-0------------------|
 D|----0--------------0---------2-2----2--------------0-0----0-0-------------------|
 A|------------0---------------3---------------------2-2----2----------------------|
 E|-------------------------------------------------3------------------------------|

Intro: D, C, G
Verse 1:
River's [D]edge, so [C]quiet and ful[G]l of potential[D]
With [C]weeping trees[G] and just enough [D]nightfall
To [C]cover up the strays[G] [D]
I can [D]hear boats in the [C]distance
Making [G]saviours out of ordinary people[D]
Chorus 1:
Now they [C]sing in a [G]symphony of [D]keepers
And they [C]hail in the [G]harmony of [D]saviours
Verse 2:
You've got to [D]live, live, live, and [C]love, love, love
Whether you [G]like it or not, I will [D]love you
Chorus 2:
Now the [C]wind picks up [G]swiftly and [D]suddenly
And it's [C]breathing as [G]if from a [D]mouth
And the [C]edges are [G]lungs that are [D]heaving
And it's [C]breathing now [G]without my [D]help
And we [C]turn against the [G]darkness with [D]intention
Verse 3:
River's [D]edge, you're [C]all that I have[G]
And a night filled with [D]promises
And [C]just enough nightfall[G] to cover up the [D]strays
Chorus 4:
Now the [C]river's like [G]horses unbr[D]oken
And it [C]really is [G]time for a [D]change
And it [C]moves and [G]connects with a [D]uniform
And the [C]bodies retu[G]rn to their [D]makers
And it's [C]good and it's [G]true, let it w[D]ash over you
Unte[C]thered and [G]without a [D]reason
[D] [C] [G]  
************************************

Important: The song above is NOT stored on the Chordie server. The original song is hosted at www.guitartabs.cc. Chordie works as a search engine and provides on-the-fly formatting. Chordie does not index songs against artists'/composers' will. To remove this song please click here.

Text color:
Chord color:
Chord grids: 
Font size:    
Page size: 

C D G
Rate #1 of 2 versions

Jango Player

Login - add to songbook

SHARE PAGE  



You need to log in to post comments