Guitar Tabs, Chords and Lyrics
Server problems seems to be fixed. Chordie has been experiencing problems with songs disappearing. These issues now seems to be fixed, but still verifying the fix. If you find anything strange, please email admin@chordie.com.


21 Guns  Green Day

Made a mistake in the last tab with the chord C5* but has been sorted here. I
have also added the solo. Enjoy!
Chords used:
Dm F A#m C A C5 C5* F5 D5 A#5 E5
 
 e|--5----1-----1-----3----5--------------------------------------------|
 B|--6----1-----3-----5----5--------------------------------------------|
 G|--7----2-----3-----5----6-----5-----------7---3----9-----------------|
 D|--7----3-----3-----5----7-----5---2---3---7---3----9-----------------|
 A|--5----3-----1-----3----7-----3---3---3---5---1----7-----------------|
 E|--5----1-----1-----3----5---------0---1------------------------------|

Intro:
[Dm] [A#] [F] [C]  
 
 e|---------------------------|
 B|----------------10-----9---|
 G|---10-----7----------------|
 D|---------------------------| (x2)
 A|---------------------------|
 E|---------------------------|

Verse:
[Dm]Do you [A#]know what's worth [F]fighting [C]for,
[Dm]When it's [A#]not worth [F]dying f[C]or?
[Dm]Does it [A#]take your [F]breath [C]away
[A#]And you feel yourself suffo[C]cating?
[Dm]Does the [A#]pain weigh [F]out the [C]pride?
[Dm]And you lo[A#]ok for a [F]place to [C]hide?
[Dm]Did some[A#]one break your [F]heart i[C]nside?
[A#]You're in ruins[C5]
Chorus:
F5 C5* D5
One, 21 guns
[C5]Lay down your [A#5]arms
[F5]Give up the [C5]fight
F5 C5* D5
One, 21 guns
[C5]Throw up your [A#5]arms [F5]into the [C5]sky,
[A#5]You an[F5]d I[C5]
Verse:
[Dm]When you're [A#]at the [F]end of the [C]road
[Dm]And you [A#]lost all [F]sense of [C]control
[Dm]And your t[A#]houghts have [F]taken their [C]toll
[A#]When your mind breaks the spirit of your [C]soul
[Dm]Your [A#]faith walks on [F]broken [C]glass
[Dm]And the [A#]hangover [F]doesn't [C]pass
[Dm]Nothing's [A#]ever [F]built to [C]last
[A#]You're in ruins.[C5]
Chorus:
F5 C5* D5
One, 21 guns
[C5]Lay down your [A#5]arms
[F5]Give up the [C5]fight
F5 C5* D5
One, 21 guns
[C5]Throw up your [A#5]arms [F5]into the [C5]sky,
[A#5]You an[F5]d I[C5]
Bridge:
[Dm]Did you [A#]try to [F]live on your [C]own
[Dm]When you [A#]burned down the h[F]ouse and [A]home?
[Dm]Did you [A#]stand too c[F]lose to the [A]fire?
[A#m]Like a liar looking for forgi[C]veness from a stone
Solo:
F5 C5* D5 C5 A#5 F5 C5
 
 e|-------------------------------------------------------------------|
 B|--------10-------10------------------------------------------------|
 G|-----------10-12----10----10----9-10-------------------9-9-9-10-12-|
 D|-(7-10)----------------12----12------12-8-12-8-10------------------|(x2)
 A|--------------------------------------------------12-8-------------|
 E|-------------------------------------------------------------------| 

[A#5] [F5] [E5]  
 
 e|-----------------------------|
 B|-----------------------------|
 G|--------------------9-9-9-9--|
 D|--8-12-8---------------------|
 A|---------10-12-9-8-----------|
 E|-----------------------------| 

Break:
[Dm] [A#] [F] [C]  
 
 e|---------------------------|
 B|----------------10-----9---|
 G|----10----7----------------|
 D|---------------------------| (x2)
 A|---------------------------|
 E|---------------------------|

Verse:
[Dm]When it's [A#]time to l[F]ive and let [C]die
[Dm]And you [A#]can't get [F]another [C]try
[Dm]Something i[A#]nside this [F]heart has [C]died
[A#]You're in ruins.[C5]
Chorus:
F5 C5* D5
One, 21 guns
[C5]Lay down your [A#5]arms
[F5]Give up the [C5]fight
F5 C5* D5
One, 21 guns
[C5]Throw up your [A#5]arms [F5]into the [C5]sky
F5 C5* D5
One, 21 guns
[C5]Lay down your [A#5]arms
[F5]Give up the [C5]fight
F5 C5* D5
One, 21 guns
[C5]Throw up your [A#5]arms [F5]into the [C5]sky,
[A#5]You an[F5]d I[C5]

Important: The song above is NOT stored on the Chordie server. The original song is hosted at www.guitartabs.cc. Chordie works as a search engine and provides on-the-fly formatting. Chordie does not index songs against artists'/composers' will. To remove this song please click here.

Text color:
Chord color:
Chord grids: 
Font size:    
Page size: 

A A# A#5 A#m C C5 Dm E5 F F5
Rate #1 of 33 versions

Jango Player

Login - add to songbook

SHARE PAGE  




You need to log in to post comments