Guitar Tabs, Chords and Lyrics
Server problems seems to be fixed. Chordie has been experiencing problems with songs disappearing. These issues now seems to be fixed, but still verifying the fix. If you find anything strange, please email admin@chordie.com.


Amy  Green Day

Amy by Green Day
I'm not sure if this is 100% right but it sounds pretty good to me
Chords-
[Em] [Bm] [G] [B] [C] [D]  
 
 |----7------2-------3-----|----7-------3------5-----|
 |----8------3-------3-----|----7-------5------7-----|
 |----9------4-------4-----|----8-------5------7-----|
 |----9------4-------5-----|----9-------5------7-----|
 |----7------2-------5-----|----9-------3------5-----|
 |-------------------3-----|----7--------------------|

Intro
 
 |-------------------------|---------2------2--------|
 |-------8---------8-------|---------3------3--------|
 |-----9---9-----9---9-----|---------4------4--------|
 |-------------------------|---------4------4--------|
 |---7---------7-----------|---------2------2--------|
 |-------------------------|-------------------------| play twice

Is [G]your heart sin[Em]ging out of tune
Are [C]your eyes just si[G]nging the blues
Dirt[G]y records from[Em] another time
Som[C]e blood stains o[G]n your shoes
No-[G]one really knows ab[Em]out your soul
And[C] I barely really [G]know your name
Burn[G]ing rhythms and[Em] posting lies
For a[C] bunch o[D]f fools drown in sha[G]me
Chorus
Amy [Em]don't you go
I wan[G]t you around
Singing[Em] woah-oh-oh-oh-oh-oh p[B]lease don't go
Do [C]you want t[D]o be a friend of mi[G]ne
Do [C]you want t[D]o be a friend of mi[G]ne
 
 |-------------------------|---------2------2--------|
 |-------8---------8-------|---------3------3--------|
 |-----9---9-----9---9-----|---------4------4--------|
 |-------------------------|---------4------4--------|
 |---7---------7-----------|---------2------2--------|
 |-------------------------|-------------------------| play twice

Did[G] you tatto[Em]o a lucky charm
To k[C]eep you out[G] of harm's way
Ward[G]ing off al[Em]l evil signs
But i[C]t never really [G]kept you safe
You'r[G]e too young for t[Em]he golden age
Cause [C]now the record bi[G]n's been replaced
[G]27 gone wi[Em]thout a trace
And [C]you walked a[D]way from your drin[G]k
Chorus
Amy[Em] don't you go
I wan[G]t you around
Singing[Em] woah-oh-oh-oh-oh-oh p[B]lease don't go
Do [C]you want t[D]o be a friend of mi[G]ne
Do [C]you want t[D]o be a friend of mi[G]ne
 
 |-------------------------|---------2------2--------|
 |-------8---------8-------|---------3------3--------|
 |-----9---9-----9---9-----|---------4------4--------|
 |-------------------------|---------4------4--------|
 |---7---------7-----------|---------2------2--------|
 |-------------------------|-------------------------| play twice

Is y[G]our heart singi[Em]ng out of tune
Ar[C]e your eyes jus[G]t singing the blues
Dirt[G]y records fr[Em]om another time
Som[C]e blood stains [G]on your shoes
May [G]I have this [Em]last dance
By c[C]hance if we s[G]hould meet
Can [G]you write me a[Em] lullaby
So[C] we can[D] sing you to slee[G]p
Chorus
Amy[Em] don't you go
I wan[G]t you around
Singing[Em] woah-oh-oh-oh-oh-oh p[B]lease don't go
Do [C]you want t[D]o be a friend of mi[G]ne
Do [C]you want t[D]o be a friend of mi[G]ne
Do [C]you want t[D]o be a friend of mi[G]ne

Important: The song above is NOT stored on the Chordie server. The original song is hosted at www.guitartabs.cc. Chordie works as a search engine and provides on-the-fly formatting. Chordie does not index songs against artists'/composers' will. To remove this song please click here.

Text color:
Chord color:
Chord grids: 
Font size:    
Page size: 

B Bm C D Em G
Rate #0 of 10 versions

Jango Player

Login - add to songbook

SHARE PAGE  



You need to log in to post comments