Guitar Tabs, Chords and Lyrics
Update 25:10. 13:00. Site is back up running again. Songbooks are recovered. Woring on getting search back up..


Brutal Love  Green Day

One of the best songs from íTRE!
There are a couple of versions on the site already, I'd like to share how I think it is.
Standard tuning.
INTRO
[G#]  
 
 e|---------------|
 B|---------------|
 G|--------5------|
 D|------6---6----| X4
 A|----6-------6--|
 E|--4------------|

1st verse - Turn out the lights...
2nd verse - Oh how you want it...
3rd verse - Old toys...
4th verse - Danger, not quite at home...
[G#] [Eb] [G#]  
 
 e|---------------------------------------|
 B|--------------------8------------------|
 G|-------5----------8---8----------5-----|
 D|-----6---6------8-------8------6---6---|
 A|---6-------6--6--------------6-------6-|
 E|-4-------------------------4-----------|

X2 X2 X2
[C#] [G#] [Eb] [G#]  
 
 e|----------------------------------------------------|
 B|--------6-------------------------8-----------------|
 G|------6---6----------5----------8---8---------5-----|
 D|----6-------6------6---6------8-------8-----6---6---|
 A|--4--------------6-------6--6-------------6-------6-|
 E|---------------4------------------------4-----------|

X2 X2 X2 X4
Repeat this 4 times(one for each verse)
Chorus - Bad luck...
[C#] [G#] [Eb] [G#]  
 
 e|-----------------------------------------------------|
 B|--------6-------------------------8------------------|
 G|------6---6----------5----------8---8----------5-----|
 D|----6-------6------6---6------8-------8------6---6---|
 A|--4--------------6-------6--6--------------6-------6-|
 E|---------------4-------------------------4-----------|

X2 X2 X2 X2
Bad sex...
[C#] [G#] [F] [C#] [Eb]  
 
 e|---------------------------------------------------------|
 B|--------6-----------------------------------6------------|
 G|------6---6---------6-----------1---------6---6----8-----|
 D|----6-------6-----5---5-------3---3-----6-------6--8-----|
 A|--4-------------5-------5---3-------3-4------------6-----|
 E|--------------4-----------1------------------------------|

X2 X2
During SOLO
[G#] [Cm] [C#] [E]  
 
 e|-----------------------------------------------------|
 B|-----------------------------------------------------|
 G|--5-5-5-5-5-5-5-5-5-5-5-5-6-6-6-6-6-6-9-9-9-9-9-9----|
 D|--6-6-6-6-6-6-5-5-5-5-5-5-6-6-6-6-6-6-9-9-9-9-9-9----|
 A|--6-6-6-6-6-6-3-3-3-3-3-3-4-4-4-4-4-4-7-7-7-7-7-7----|
 E|--4-4-4-4-4-4----------------------------------------| 

[G#] [G] [C#] [Eb] [A]  
 
 e|-----------------------------------------------------|
 B|-----------------------------------------------------|
 G|--------------------------6-6-6-6-6-6-8-8-8----------|
 D|--6-6-6-6-6-6-5-5-5-5-5-5-6-6-6-6-6-6-8-8-8-5-5-5----|
 A|--6-6-6-6-6-6-5-5-5-5-5-5-4-4-4-4-4-4-6-6-6-5-5-5----|
 E|--4-4-4-4-4-4-3-3-3-3-3-3-------------------7-7-7----|

[G#] [Cm] [C#] [E]  
 
 e|-----------------------------------------------------|
 B|-----------------------------------------------------|
 G|--5-5-5-5-5-5-5-5-5-5-5-5-6-6-6-6-6-6-9-9-9-9-9-9----|
 D|--6-6-6-6-6-6-5-5-5-5-5-5-6-6-6-6-6-6-9-9-9-9-9-9----|
 A|--6-6-6-6-6-6-3-3-3-3-3-3-4-4-4-4-4-4-7-7-7-7-7-7----|
 E|--4-4-4-4-4-4----------------------------------------| 

[G#] [G] [C#] [Eb]  
 
 e|-----------------------------------------------------|
 B|-----------------------------------------------------|
 G|--------------------------6-6-6-6-6-6-8-8-8-8-8-8----|
 D|--6-6-6-6-6-6-5-5-5-5-5-5-6-6-6-6-6-6-8-8-8-8-8-8----|
 A|--6-6-6-6-6-6-5-5-5-5-5-5-4-4-4-4-4-4-6-6-6-6-6-6----|
 E|--4-4-4-4-4-4-3-3-3-3-3-3----------------------------|

SOLO
 
 e|----------------------------------------------------------------|
 B|----------------------------------------------------------------|
 G|---1/---10-8---(8)-10-8--10-8--1----1-5--0---0-1--3---3-1-3-----|
 D|----------------------------------------------------------------| X2
 A|----------------------------------------------------------------|
 E|----------------------------------------------------------------|

Chorus - Bad luck...
[C#] [G#]  
 
 e|-------------------------------------|
 B|-------------------------------------|
 G|-6-6-6-6--6-6-6-6--------------------|
 D|-6-6-6-6--6-6-6-6--6-6-6-6--6-6-6-6--|
 A|-4-4-4-4--4-4-4-4--6-6-6-6--6-6-6-6--|
 E|-------------------4-4-4-4--4-4-4-4--|

[Eb] [G#]  
 
 e|--------------------------------------------------|
 B|--------------------------------------------------|
 G|-8-8-8-8-8-8-8-8-8-8-8-8--------------------------|
 D|-8-8-8-8-8-8-8-8-8-8-8-8--6-6-6-6-6-6-6-6-6-6-6-6-|
 A|-6-6-6-6-6-6-6-6-6-6-6-6--6-6-6-6-6-6-6-6-6-6-6-6-|
 E|--------------------------4-4-4-4-4-4-4-4-4-4-4-4-|

Bad love...
[C#] [G#] [G] [F]  
 
 e|--------------------------------------------|
 B|--------------------------------------------|
 G|-6-6-6-6--6-6-6-6---------------------------|
 D|-6-6-6-6--6-6-6-6--6-6-6-6-6-5-3-3-3-3-3-3--|
 A|-4-4-4-4--4-4-4-4--6-6-6-6-6-5-3-3-3-3-3-3--|
 E|-------------------4-4-4-4-4-3-1-1-1-1-1-1--|

[C#] [Eb] [E]  
 
 e|-------------------------------------------------|
 B|-------------------------------------------------|
 G|-6-6-6-6-6-6-6-6-6-6-6-6-8-8-8-8-8-8-9-9-9-9-9-9-|
 D|-6-6-6-6-6-6-6-6-6-6-6-6-8-8-8-8-8-8-9-9-9-9-9-9-|
 A|-4-4-4-4-4-4-4-4-4-4-4-4-6-6-6-6-6-6-7-7-7-7-7-7-|
 E|-------------------------------------------------|

[A] [C#m] [D] [F]  
 
 e|------------------------------------------------------------|
 B|------------------------------------------------------------|
 G|--6-6-6-6-6-6--6-6-6-6-6-6--7-7-7-7-7-7--10-10-10-10-10-10--|
 D|--7-7-7-7-7-7--6-6-6-6-6-6--7-7-7-7-7-7--10-10-10-10-10-10--|
 A|--7-7-7-7-7-7--4-4-4-4-4-4--5-5-5-5-5-5--8--8--8--8--8--8---|
 E|--5-5-5-5-5-5-----------------------------------------------|

[A] [G#] [D] [E] [A#]  
 
 e|-----------------------------------------------------|
 B|-----------------------------------------------------|
 G|----------------------------7-7-7-7-7-7--9-9-9-------|
 D|--7-7-7-7-7-7--6-6-6-6-6-6--7-7-7-7-7-7--9-9-9-8-8-8-| x4
 A|--7-7-7-7-7-7--6-6-6-6-6-6--5-5-5-5-5-5--7-7-7-8-8-8-|
 E|--5-5-5-5-5-5--4-4-4-4-4-4---------------------6-6-6-| 

e|-[A]--|
B|---|
G|-6-|
D|-7-|
A|-7-|
E|-5-|

Important: The song above is NOT stored on the Chordie server. The original song is hosted at www.guitartabs.cc. Chordie works as a search engine and provides on-the-fly formatting. Chordie does not index songs against artists'/composers' will. To remove this song please click here.

Text color:
Chord color:
Chord grids: 
Font size:    
Page size: 

A A# C# C#m Cm D E Eb F G G#
Rate #0 of 9 versions

Jango Player

Login - add to songbook

SHARE PAGE  



You need to log in to post comments