Guitar Tabs, Chords and Lyrics
Server problems seems to be fixed. Chordie has been experiencing problems with songs disappearing. These issues now seems to be fixed, but still verifying the fix. If you find anything strange, please email admin@chordie.com.


Christian's Inferno  Green Day

Greenday
Christian's Inferno
21st Century Breakdown
2009 Reprise Records
Submitted by: paramore_fans@yahoo.com
Key: D
Tuning: Drop B
Chords used: Drop B only
Bm - 000xxx
G - 888xxx
C - 111xxx
D - 333xxx
Em - 555xxx
 
 A - 10-10-10-x-x-x

F - 666xxx
Chords used: for Standard EADGBe
Bm - x24432
G - 320033
C - x32010
D - xx0232
A - x02220
Em - 022000
[F] [-] [133211]  
Intro: Bm--G-C- x2
Verse 1:
[Bm] I got under the grip
Be[G]tween the modern [C]hell
[Bm] I got the rejection
letter in the [G]mail and
It was already [C]ripped to shreds
[Bm] Season in a ruin and
This [G]bitter pill is
[C]chased with blood
[Bm] There's fire in my veins
And it's [G]pouring
out [A]like a fool
Chorus:
[D]Woah[A] [D] Christian's In[G]ferno
[D]Woah[A] [D] Christian's In[G]ferno
[D]Woah[A] [D] Christian's In[G]ferno
[D]Woah[A] [D] Christian's In[G]ferno
Interlude: Bm--G-C- x2
Verse 2:
[Bm] This diabolic state
is [G]gracing my e[C]xistence
[Bm] Like a catrastophic baby
Maybe, [G]Maybe you're a
chemical re[C]action
[Bm] I am the atom bomb
[G] I am the [C]chosen one
[Bm] Toxin our reservoir
And [G]the return [A]man to ape
(Repeat Chorus and Interlude)
 
 Guitar Solo: Bm--Em--C--D-Bm- x4

Guitar 2: Solo
[Bm] [Em] [C] [D] [Bm]  
 
 e|-7-7----7-7---|-7-7----7-7---|-8-8----8-8-|-10-10-|-7-7----7-7---|
 B|-----7------7-|-----7------7-|-----8------|-------|-----7------7-|
 G|--------------|--------------|------------|-------|--------------|
 D|--------------|--------------|------------|-------|-------------- x3
 A|--------------|--------------|------------|-------|--------------|
 E|--------------|--------------|------------|-------|--------------|

[Bm] [Em] [C] [D] [Bm]  
 
 e|-7-7----7-7---|-7-7----7-7---|-8-8----8-8-|-10-10-|-7-7----7/8/9-|
 B|-----7------7-|-----7------7-|-----8------|-------|-----7--------|
 G|--------------|--------------|------------|-------|--------------|
 D|--------------|--------------|------------|-------|--------------|
 A|--------------|--------------|------------|-------|--------------|
 E|--------------|--------------|------------|-------|--------------|

(Repeat Chorus)
 
 Outro: G--F x4, G-F-G-F-Bm(hold)


Important: The song above is NOT stored on the Chordie server. The original song is hosted at www.guitartabs.cc. Chordie works as a search engine and provides on-the-fly formatting. Chordie does not index songs against artists'/composers' will. To remove this song please click here.

Text color:
Chord color:
Chord grids: 
Font size:    
Page size: 

A Bm C D Em F G
Rate #1 of 3 versions

Login - add to songbook

SHARE PAGE  



You need to log in to post comments