Guitar Tabs, Chords and Lyrics
Server problems seems to be fixed. Chordie has been experiencing problems with songs disappearing. These issues now seems to be fixed, but still verifying the fix. If you find anything strange, please email admin@chordie.com.


Peacemaker  Green Day

Greenday
Peacemaker
21st Century Breakdown
2009 Reprise Records
Submitted by: paramore_fans@yahoo.com
Key: D
Tuning: Standard EADGBe
Chords used:
Bm - x24432
[F#]Em [-]- [244322]022000
A - x02200
Intro:
Guitar: Bm-- x4
Bass: Bm--F#--
Verse 1:
[Bm] Well, I?ve got a fever
A non-believer
I?m in a state of grace
For I am the Caesar
I?m gonna seize the [F#]day
Well call of the banshee hey hey
Hey hey hey hey hey
As God as my witness
The infidels are gonna [Bm]pay
Well, [Bm]call the assassin
The orgasm
A spasm of love and hate
For what will divide us?
The righteous and the [F#]meek
Well call of the wild hey hey
Hey hey hey hey hey
Death to the girl at the
end of the sere[Bm]nade
Chorus:
Ven[F#]detta sweet vendetta
This Be[Bm]retta of the night
This [Em]fire and the de[Bm]sire
well [F#]Shots ringing out on
a holy para[Bm]site
Verse 2:
Well [Bm]I am a killjoy from Detroit
I drink from a well of rage
I feed off the weakness
with all my [F#]love
Well Call up the captain hey hey
Hey hey hey hey hey
WellDeath to the lover that
you were dreaming [Bm]of
Well [Bm]This is a stand off
A Molotov cocktail
On the house
You thought I was a write off
You better think a[F#]gain
Call the peacemaker hey hey
Hey hey hey hey hey
I?m gonna send you back
to the place where it all be[Bm]gan
(Repeat Chorus)
Breakdown:
Guitar 2:
 
 e|---------|
 B|---------|
 G|-4--3--4-|
 D|---------|
 A|---------|
 E|---------|
 Guitar Solo: F#--Bm--Em-Bm-F#-Bm

Guitar 2:
[F#] [Bm]  
 
 e|-6--4-6--4-6-4-------4-6--4-6--4-6-4------5-|-7--5-7--5-7-5------5-7--5-7--5-7-5------5-|
 B|---------------7---7-----------------7--8---|---------------7--8-----------------7--8---|
 G|--------------------------------------------|-------------------------------------------|
 D|--------------------------------------------|-------------------------------------------|
 A|--------------------------------------------|-------------------------------------------|
 E|--------------------------------------------|-------------------------------------------|

[Em] [Bm] [F#] 
[Bm]  
 
 e|-7-----7--9-10-9-7-----|-7--5-7--5-7-5------|-6--4-6--4-6-4------|-7--7-----7--7-|
 B|----10--------------10-|---------------7--7-|---------------7--7-|-------7-------|
 G|-----------------------|--------------------|--------------------|---------------|
 D|-----------------------|--------------------|--------------------|---------------|
 A|-----------------------|--------------------|--------------------|---------------|
 E|-----------------------|--------------------|--------------------|---------------|

Bridge:
Well [Bm]now the caretaker?s the undertaker
Now I?m gonna go out and get the peacemaker
This is the neo St. Valentines Massa[F#]cre
Well call up the Gaza hey hey
hey hey hey hey hey
Death to the ones at the end of the sere[Bm]nade
Outro:
Well, [F#]death to the ones at the end of the sere[Bm]nade
Well, [F#]death to the ones at the end of the sere[Bm]nade
F#(hold) Bm-A-Bm-A-Bm-Bm(hold)
Well, death to the ones at the end of the sere-nade

Important: The song above is NOT stored on the Chordie server. The original song is hosted at www.guitartabs.cc. Chordie works as a search engine and provides on-the-fly formatting. Chordie does not index songs against artists'/composers' will. To remove this song please click here.

Text color:
Chord color:
Chord grids: 
Font size:    
Page size: 

Bm Em F#
Rate #1 of 8 versions

Jango Player

Login - add to songbook

SHARE PAGE  




You need to log in to post comments