Guitar Tabs, Chords and Lyrics
Server problems seems to be fixed. Chordie has been experiencing problems with songs disappearing. These issues now seems to be fixed, but still verifying the fix. If you find anything strange, please email admin@chordie.com.


Restless Heart Syndrome  Green Day

21st Century Breakdown
2009 Reprise Records
Submitted by: paramore_fans@yahoo.com
Key: Bb
Tuning: Standard EADGBe
Chords:
[Gm]C -[-] [355333]x32010
[F]C/[-]E - [133211]032xxx
Eb - x68886
D - xx0232
[G#]Cm [-]- [466544]x35543
Bb - x13331
F/A - x032xx
Intro: Piano
[Gm] [C] [F] [Bb] [Eb] [G#] [D]  
 
 e|---------|---------|-----8---|---------|-----6---|---------|-2-|
 B|-----3---|---------|-6-------|---------|-4-------|-----4---|-3-|
 G|-3-------|-5---5---|---5---5-|-3---3---|---3---3-|-5-------|-2-|
 D|---5---5-|---5---5-|-3-------|---3---3-|---------|---6---6-|-0-|
 A|---------|-3-------|---------|-1-------|-6-------|---------|---|
 E|-3-------|---------|---------|---------|---------|-4-------|---|

Verse 1:
[Gm] I?ve got a [F]really bad di[C/E]sease[Eb]
[Gm] It's got me [F]begging on my [C/E]hands and [Eb]knees
So [Gm]take me [F]to e[C/E]mergen[Eb]cy
[Gm] Cause something [F]seems to be mis[C/E]sing[Eb]
Verse 2:
[Gm] Somebody [F]take the pain a[C/E]way [Eb]
[Gm] It's like an [F]ulcer bleeding [C/E]in my [Eb]brain
So [Gm]send me [F]to the [C/E]pharma[Eb]cy
[Gm] So I can [F]lose my memo[C/E]ry [Eb]
Refrain 1:
[Cm] I'm e[Bb]lated[F/A] Medi[G#]cated
[Cm] Lord knows I [Bb]tried to
find a [F/A]way [G#] to run a[D]way
Verse 3:
[Gm] I think they [F]found another [C/E]cure[Eb]
[Gm] For broken [F]hearts and feeling [C/E]inse[Eb]cure
You'd [Gm]be sur[F]prised what [C/E]I en[Eb]dure
[Gm] What makes you [F]feel so self-as[C/E]sured?[Eb]
Verse 4:
[Gm] I need to [F]find a place to [C/E]hide[Eb]
[Gm] You never [F]know what
could be [C/E]waiting out[Eb]side
The [Gm]acci[F]dents that [C/E]you could [Eb]find
[Gm] It's like some [F]kind of sui[C/E]cide[Eb]
Refrain 1:
[Cm] So what [Bb]ails you
[F/A] is what im[G#]pales you
[Cm] I feel like [Bb]I've been
cruci[F/A]fied[G#] to be satis[D]fied
Chorus 1:
[Gm] I'm a victim [F] of my symptom
[C/E] I am my [Cm]own worst e[F]nemy[D]
[Gm] You're a victim [F] of your symptom
[C/E] You are your [Cm]own
F D(hold)
worst enemy Know your enemy
Guitar Solo: Gm-F-C/E-Eb x4
Guitar 2: with effects pedal
[Gm] [F] [C/E] [Eb] [Gm] [F] [C/E] [Eb]  
 
 e|-3-3-6-3-|-5-5-6-3-|-3-3-3-3-|-3-3-3-3-|-3-3-6-3-|-5-5-6-8-|--6-5-6-|--5-----|
 B|---------|---------|---------|---------|---------|---------|--------|----6-6-|
 G|---------|---------|---------|---------|---------|---------|--------|--------|
 D|---------|---------|---------|---------|---------|---------|--------|--------|
 A|---------|---------|---------|---------|---------|---------|--------|--------|
 E|---------|---------|---------|---------|---------|---------|--------|--------|

[Gm] [F] [C/E] [Eb] [Gm] [F] [C/E] [Eb]  
 
 e|-----6---|-5-5-6-3-|-3-3-3-3-|-3-3-3-3-|-3-3-6-3-|-5-5-6-8-|--8~-|-11~-|
 B|-6-6---6-|---------|---------|---------|---------|---------|-----|-----|
 G|---------|---------|---------|---------|---------|---------|-----|-----|
 D|---------|---------|---------|---------|---------|---------|-----|-----|
 A|---------|---------|---------|---------|---------|---------|-----|-----|
 E|---------|---------|---------|---------|---------|---------|-----|-----|

Chorus 2:
Gm(hold) F(hold)
I'm elated Medicated
[C/E] I am my [Cm]own worst e[F]nemy[D]
Gm(hold)
So what ails you
F(hold)
Is what impales you
[C/E] You are your [Cm]own
worst e[F]nemy[D]
Chorus 3:
[Gm] You're a victim [F] of the seizure
[C/E] I am my [Cm]own worst e[F]nemy[D]
[Gm] You're a victim [F] of the seizure
[C/E] You are your [Cm]own
worst e[F]nemy[D]
 
 Outro: Gm--Gm--Eb--Eb-Dm x4, Gm-Gm-Gm-Gm(hold)


Important: The song above is NOT stored on the Chordie server. The original song is hosted at www.guitartabs.cc. Chordie works as a search engine and provides on-the-fly formatting. Chordie does not index songs against artists'/composers' will. To remove this song please click here.

Text color:
Chord color:
Chord grids: 
Font size:    
Page size: 

Bb C C/E Cm D Eb F G# Gm
Rate #1 of 5 versions

Login - add to songbook

SHARE PAGE  



You need to log in to post comments