Guitar Tabs, Chords and Lyrics
Server problems seems to be fixed. Chordie has been experiencing problems with songs disappearing. These issues now seems to be fixed, but still verifying the fix. If you find anything strange, please email admin@chordie.com.


See the Light  Green Day

Greenday
See The Light
21st Century Breakdown
2009 Reprise Records
Submitted by: paramore_fans@yahoo.com
Key: G# then C#
Tuning: Standard EADGBe
Chords used:
C# - x46664
[G#] [-] [466544]  
[F#]Eb [-]- [244322]x68886
Intro: C#--G#-- x4
Guitar 2:
 
 e|-11-----11-----11-----11-----11-------|
 B|----9------9------9------9------9---9-|
 G|------8------8------8------8------8---|
 D|--------------------------------------| x8
 A|--------------------------------------|
 E|--------------------------------------|

Verse 1:
Well I [C#]crossed the [G#]river
Fell in[C#]to the [G#]sea
Where the [C#]non-be[G#]lievers
Go be[C#]yond be[G#]lief
Then I s[C#]cratched the [G#]surface
In the [C#]mouth of [G#]Hell
Running [C#]out of [G#]service
In the [C#]blood I [G#]fell
Chorus:
Well [C#]I, I just [F#]want to [C#]see the [G#]light[C#] [G#]
And [C#]I, I don't [F#]want to [C#]lose my [G#]sight[C#] [G#]
Well [C#]I, I just [F#]want to [C#]see the [G#]light[C#] [G#]
And [C#]I need to [F#]know what's [C#]worth the [Eb]fight
Verse 2:
[C#]I've been [G#]wasted
Pills and [C#]alco[G#]hol
[C#]I've been [G#]chasing
Down the [C#]pool [G#]halls
Then I [C#]drank the [G#]water
From a [C#]hurri[G#]cane
And I [C#]set a [G#]fire
Just to [C#]see the [G#]flame
(Repeat Chorus)
 
 Guitar Solo: C#--F#-C#-G#--C#-G#- x3

[C#--F#-C#-Eb]  
Guitar 2:
[C#] [F#] [C#] [G#]  
 
 e|---------------|--------|--------|------8-----8---8---8---11---11---|
 B|-6--4------4-6-|-7--7-7-|-6--6-6-|-9--9---9-9---9---9---9----9----9-|
 G|------6--6-----|--------|--------|----------------------------------|
 D|---------------|--------|--------|----------------------------------|
 A|---------------|--------|--------|----------------------------------|
 E|---------------|--------|--------|----------------------------------|

( Tab from: http://www.guitartabs.cc/tabs/g/green_day/see_the_light_crd_ver_3.html )
[C#] [F#] [C#]  
 
 e|-13--11--------11-13-|-14--14-14-|-13--13-13-|
 B|--------14--14-------|-----------|-----------|
 G|---------------------|-----------|-----------|
 D|---------------------|-----------|-----------|
 A|---------------------|-----------|-----------|
 E|---------------------|-----------|-----------|

[G#]  
 
 e|-----------------------------------16----------|
 B|-16--16-------16-------16----16----------16----|
 G|--------13-13----13-13----13----13----13----13-|
 D|-----------------------------------------------|
 A|-----------------------------------------------|
 E|-----------------------------------------------|

[C#] [F#] [C#] [G#]  
 
 e|---------------|------|------|------8-----8---8---8---11---11---|
 B|-6--4------4-6-|-7--7-|-6--6-|-9--9---9-9---9---9---9----9----9-|
 G|------6--6-----|------|------|----------------------------------|
 D|---------------|------|------|----------------------------------|
 A|---------------|------|------|----------------------------------|
 E|---------------|------|------|----------------------------------|

[C#] [F#] [C#]  
 
 e|-13--11--------11-13-|-14--14-14-|-13--13-13-|
 B|--------14--14-------|-----------|-----------|
 G|---------------------|-----------|-----------|
 D|---------------------|-----------|-----------|
 A|---------------------|-----------|-----------|
 E|---------------------|-----------|-----------|

[Eb]  
 
 e|-11--11-----11-----11---11---11---11---|
 B|--------9-9----9-9----9----9----9----9-|
 G|---------------------------------------|
 D|---------------------------------------|
 A|---------------------------------------|
 E|---------------------------------------|

Interlude: C#--G#-- x2
Guitar 2:
[C#] [G#] [C#] [G#]  
 
 e|---|-11----|-11-----|-11--9-|-8-|
 B|-9-|-----9-|------9-|-------|---|
 G|---|-------|--------|-------|---|
 D|---|-------|--------|-------|---|
 A|---|-------|--------|-------|---|
 E|---|-------|--------|-------|---|

Verse 3:
I [C#]crossed the [G#]desert
Reaching [C#]higher [G#]ground
Then I [C#]pound the [G#]pavement
To take the [C#]liars [G#]down
But it's [C#]gone for[G#]ever
But never [C#]too [G#]late
Where the [C#]ever [G#]after
It's the [C#]hands of [G#]fate
(Repeat Chorus)
Outro: C#--G#-- x12

Important: The song above is NOT stored on the Chordie server. The original song is hosted at www.guitartabs.cc. Chordie works as a search engine and provides on-the-fly formatting. Chordie does not index songs against artists'/composers' will. To remove this song please click here.

Text color:
Chord color:
Chord grids: 
Font size:    
Page size: 

C# Eb F# G#
Rate #1 of 4 versions

Jango Player

Login - add to songbook

SHARE PAGE  



You need to log in to post comments