Guitar Tabs, Chords and Lyrics
Server problems seems to be fixed. Chordie has been experiencing problems with songs disappearing. These issues now seems to be fixed, but still verifying the fix. If you find anything strange, please email admin@chordie.com.


Walking Alone  Green Day

Tabbed by adam jones,adam_1_jones@hotmail.com.
Words by Billie Joe Armstrong
Music by Green Day
all chords used are power chords
here are the chords used
..G __________________________
[E--3--]A--5-- the guitar tab follows - downwards
D--5-- |
|
..E |
E--0-- \\ /
A--2-- '
[D--2--]  
[C]  
[E-----]  
[A--3--]  
[D--5--]  
[D]  
[E-----]  
[A--5--]  
[D--7--]  
[G--7--]  
..F
[E--1--]  
[A--3--]  
[D--3--]  
INTRO
[G] [E]  
[G] [E]  
intro solo on harmonica (play it on guitar if you want)
IG IE
 
 e|---------------------------------------|
 B|-8-------------------------------------|
 G|---7-4-9b(10)r(9)----------------------|
 D|---------------------------------------|
 A|---------------------------------------|
 E|---------------------------------------|

IG IE
 
 e|---------------------------------------|
 B|-8-------------------------------------|
 G|---7-4-9b(10)r(9)----------------------|
 D|---------------------------------------|
 A|---------------------------------------|
 E|---------------------------------------|

(between the \"intro solo\" and the verse(s) there is
no pause, it goes....
G| E|\"intro solo\"
G| E|\"intro solo\"
G| E|\"(start of) verse\"
VERSE 1
[G]Come together like a [E]foot in a shoe
[C]Only this time I think I stuck my [D]foot in my mouth
[G]Thinking out loud and [E]acting in vain
[C]Knocking over anyone that [D]stands in my way
CHORUS
[C]Sometimes I need to [D]apologize
[C]Sometimes I need to admit [D]that I ain't right
[C]Sometimes I should just [D]keep my mouth shut
Or [G]only s[F]ay hel[E]lo
[C]Sometimes I [D]still feel I'm w[G]alking alone
[G] [E]  
[G] [E]  
intro solo on harmonica - played again
(play it on guitar if you want)
IG IE
 
 e|---------------------------------------|
 B|-8-------------------------------------|
 G|---7-4-9b(10)r(9)----------------------|
 D|---------------------------------------|
 A|---------------------------------------|
 E|---------------------------------------|

IG IE
 
 e|---------------------------------------|
 B|-8-------------------------------------|
 G|---7-4-9b(10)r(9)----------------------|
 D|---------------------------------------|
 A|---------------------------------------|
 E|---------------------------------------|

VERSE 2
[G]Walk on eggshells on my [E]old stomping ground
[C]Yet there's really no one left, th[D]at's hanging around
[G]Isn't that another f[E]amiliar face
[C]Too drunk to figure out they're [D]fading away
Chorus
[C]Sometimes I need to [D]apologize
[C]Sometimes I need to admit t[D]hat I ain't right
[C]Sometimes I should just k[D]eep my mouth shut
Or [G]only s[F]ay hel[E]lo
[C]Sometimes I still[D] feel I'm wal[G]king alone
Intro solo on harmonica - played again
(play it on guitar if you want)
IG IE
 
 e|---------------------------------------|
 B|-8-------------------------------------|
 G|---7-4-9b(10)r(9)----------------------|
 D|---------------------------------------|
 A|---------------------------------------|
 E|---------------------------------------|

IG IE
 
 e|---------------------------------------|
 B|-8-------------------------------------|
 G|---7-4-9b(10)r(9)----------------------|
 D|---------------------------------------|
 A|---------------------------------------|
 E|---------------------------------------|

Guitar solo
IG IE IC ID
 
 e|----------------------------0-3------2-5--|
 B|-8--------------------0-1------2-3--------|
 G|---7-4-9b(10)r(9)-------------------------|
 D|------------------------------------------|
 A|------------------------------------------|
 E|------------------------------------------|

[C]Sometimes I need to [D]apologize
[C]Sometimes I need to admit [D]that I ain't right
[C]Sometimes I should just k[D]eep my mouth shut
Or [G]only s[F]ay hel[E]lo
[C]Sometimes I still [D]feel I'm wa[G]lking alone
Intro solo (played as the outro) on harmonica - played again
(play it on guitar if you want - it sounds just as good)
IG IE
 
 e|---------------------------------------|
 B|-8-------------------------------------|
 G|---7-4-9b(10)r(9)----------------------|
 D|---------------------------------------|
 A|---------------------------------------|
 E|---------------------------------------|

IG IE
 
 e|---------------------------------------|
 B|-8-------------------------------------|
 G|---7-4-9b(10)r(9)----------------------|
 D|---------------------------------------|
 A|---------------------------------------|
 E|---------------------------------------|

( Tab from: http://www.guitartabs.cc/tabs/g/green_day/walking_alone_tab_ver_3.html )
IG IE
 
 e|---------------------------------------|
 B|-8-------------------------------------|
 G|---7-4-9b(10)r(9)----------------------|
 D|---------------------------------------|
 A|---------------------------------------|
 E|---------------------------------------|

IG IE
 
 e|---------------------------------------|
 B|-8-------------------------------------|
 G|---7-4-9b(10)r(9)----------------------|
 D|---------------------------------------|
 A|---------------------------------------|
 E|---------------------------------------|Words by Billie Joe Armstrong

Music by Green Day
all chords used are power chords
here are the chords used
..G __________________________
[E--3--]A--5-- the guitar tab follows - downwards
D--5-- |
|
..E |
E--0-- \\ /
A--2-- '
[D--2--]  
[C]  
[E-----]  
[A--3--]  
[D--5--]  
[D]  
[E-----]  
[A--5--]  
[D--7--]  
[G--7--]  
..F
[E--1--]  
[A--3--]  
[D--3--]  
INTRO
[G] [E]  
[G] [E]  
intro solo on harmonica (play it on guitar if you want)
IG IE
 
 e|---------------------------------------|
 B|-8-------------------------------------|
 G|---7-4-9b(10)r(9)----------------------|
 D|---------------------------------------|
 A|---------------------------------------|
 E|---------------------------------------|

IG IE
 
 e|---------------------------------------|
 B|-8-------------------------------------|
 G|---7-4-9b(10)r(9)----------------------|
 D|---------------------------------------|
 A|---------------------------------------|
 E|---------------------------------------|

(between the \"intro solo\" and the verse(s) there is
no pause, it goes....
G| E|\"intro solo\"
G| E|\"intro solo\"
G| E|\"(start of) verse\"
VERSE 1
[G]Come together like a [E]foot in a shoe
[C]Only this time I think I stuck my [D]foot in my mouth
[G]Thinking out loud and [E]acting in vain
[C]Knocking over anyone that [D]stands in my way
CHORUS
[C]Sometimes I need to [D]apologize
[C]Sometimes I need to admit [D]that I ain't right
[C]Sometimes I should just [D]keep my mouth shut
Or [G]only s[F]ay hel[E]lo
[C]Sometimes I [D]still feel I'm w[G]alking alone
[G] [E]  
[G] [E]  
intro solo on harmonica - played again
(play it on guitar if you want)
IG IE
 
 e|---------------------------------------|
 B|-8-------------------------------------|
 G|---7-4-9b(10)r(9)----------------------|
 D|---------------------------------------|
 A|---------------------------------------|
 E|---------------------------------------|

IG IE
 
 e|---------------------------------------|
 B|-8-------------------------------------|
 G|---7-4-9b(10)r(9)----------------------|
 D|---------------------------------------|
 A|---------------------------------------|
 E|---------------------------------------|

VERSE 2
[G]Walk on eggshells on my [E]old stomping ground
[C]Yet there's really no one left, th[D]at's hanging around
[G]Isn't that another f[E]amiliar face
[C]Too drunk to figure out they're [D]fading away
Chorus
[C]Sometimes I need to [D]apologize
[C]Sometimes I need to admit t[D]hat I ain't right
[C]Sometimes I should just k[D]eep my mouth shut
Or [G]only s[F]ay hel[E]lo
[C]Sometimes I still[D] feel I'm wal[G]king alone
Intro solo on harmonica - played again
(play it on guitar if you want)
IG IE
 
 e|---------------------------------------|
 B|-8-------------------------------------|
 G|---7-4-9b(10)r(9)----------------------|
 D|---------------------------------------|
 A|---------------------------------------|
 E|---------------------------------------|

IG IE
 
 e|---------------------------------------|
 B|-8-------------------------------------|
 G|---7-4-9b(10)r(9)----------------------|
 D|---------------------------------------|
 A|---------------------------------------|
 E|---------------------------------------|

Guitar solo
IG IE IC ID
 
 e|----------------------------0-3------2-5--|
 B|-8--------------------0-1------2-3--------|
 G|---7-4-9b(10)r(9)-------------------------|
 D|------------------------------------------|
 A|------------------------------------------|
 E|------------------------------------------|

[C]Sometimes I need to [D]apologize
[C]Sometimes I need to admit [D]that I ain't right
[C]Sometimes I should just k[D]eep my mouth shut
Or [G]only s[F]ay hel[E]lo
[C]Sometimes I still [D]feel I'm wa[G]lking alone
Intro solo (played as the outro) on harmonica - played again
(play it on guitar if you want - it sounds just as good)
IG IE
 
 e|---------------------------------------|
 B|-8-------------------------------------|
 G|---7-4-9b(10)r(9)----------------------|
 D|---------------------------------------|
 A|---------------------------------------|
 E|---------------------------------------|

IG IE
 
 e|---------------------------------------|
 B|-8-------------------------------------|
 G|---7-4-9b(10)r(9)----------------------|
 D|---------------------------------------|
 A|---------------------------------------|
 E|---------------------------------------|

IG IE
 
 e|---------------------------------------|
 B|-8-------------------------------------|
 G|---7-4-9b(10)r(9)----------------------|
 D|---------------------------------------|
 A|---------------------------------------|
 E|---------------------------------------|

IG IE
 
 e|---------------------------------------|
 B|-8-------------------------------------|
 G|---7-4-9b(10)r(9)----------------------|
 D|---------------------------------------|
 A|---------------------------------------|
 E|---------------------------------------| 

:: Ultimate Guitar Archive ::
http://www.ultimate-guitar.com

Important: The song above is NOT stored on the Chordie server. The original song is hosted at www.guitartabs.cc. Chordie works as a search engine and provides on-the-fly formatting. Chordie does not index songs against artists'/composers' will. To remove this song please click here.

Text color:
Chord color:
Chord grids: 
Font size:    
Page size: 

C D E F G
Rate #1 of 11 versions

Jango Player

Login - add to songbook

SHARE PAGE  




You need to log in to post comments