Guitar Tabs, Chords and Lyrics
Server problems seems to be fixed. Chordie has been experiencing problems with songs disappearing. These issues now seems to be fixed, but still verifying the fix. If you find anything strange, please email admin@chordie.com.


Warning   Green Day

 
 e|-----------------|-----------------|-----------------|-----------------|
 B|-----------------|-----------------|-----------------|-----------------|G
 G|-----------------|-0-0-------------|-----------------|-0-0-------------|T
 D|---------0-0-2-4-|-----4-2-0-0-----|---------0-0-2-4-|-----4-2-0-0-----|R
 A|-0-0-2-4---------|-------------4-2-|-0-0-2-4---------|-------------4-2-|1
 E|-----------------|-----------------|-----------------|-----------------|

 


 | |


 

 
 e|---------2-2-2---|-3-3-3---2-2-2---|---------2-2-2---|-3-3-3---2-2-2---|
 B|-2-2-2-x-3-3-3-x-|-3-3-3-x-3-3-3-x-|-2-2-2-x-3-3-3-x-|-3-3-3-x-3-3-3-x-|G
 G|-2-2-2-x-2-2-2-x-|-0-0-0-x-2-2-2-x-|-2-2-2-x-2-2-2-x-|-0-0-0-x-2-2-2-x-|T
 D|-2-2-2-x-0-0-0-x-|-0-0-0-x-0-0-0-x-|-2-2-2-x-0-0-0-x-|-0-0-0-x-0-0-0-x-|R
 A|-0-0-0-x-------x-|-2-2-2-x-------x-|-0-0-0-x-------x-|-2-2-2-x---------|2
 E|-----------------|-3-3-3-----------|-----------------|-3-3-3-----------|

 


 


 Verse


 Gtr.1 clean, Gtr.2 clean


 [x8] 


 

 
 e|-----------------|-----------------|-----------------|-----------------|
 B|-----------------|-----------------|-----------------|-----------------|G
 G|-----------------|-0-0-------------|-----------------|-0-0-------------|T
 D|---------0-0-2-4-|-----4-2-0-0-----|---------0-0-2-4-|-----4-2-0-0-----|R
 A|-0-0-2-4---------|-------------4-2-|-0-0-2-4---------|-------------4-2-|1
 E|-----------------|-----------------|-----------------|-----------------|

 


 | |


 

 
 e|---------2-2-2---|-3-3-3---2-2-2---|---------2-2-2---|-3-3-3---2-2-2---|
 B|-2-2-2-x-3-3-3-x-|-3-3-3-x-3-3-3-x-|-2-2-2-x-3-3-3-x-|-3-3-3-x-3-3-3-x-|G
 G|-2-2-2-x-2-2-2-x-|-0-0-0-x-2-2-2-x-|-2-2-2-x-2-2-2-x-|-0-0-0-x-2-2-2-x-|T
 D|-2-2-2-x-0-0-0-x-|-0-0-0-x-0-0-0-x-|-2-2-2-x-0-0-0-x-|-0-0-0-x-0-0-0-x-|R
 A|-0-0-0-x-------x-|-2-2-2-x-------x-|-0-0-0-x-------x-|-2-2-2-x---------|2
 E|-----------------|-3-3-3-----------|-----------------|-3-3-3-----------|

 


 


 Chorus


 Gtr.1 clean, Gtr.2 clean


 [x4] 


 

 
 e|-----------------|-----------------|-----------------|-----------------|
 B|-----------------|-----------------|-----------------|-----------------|G
 G|-----------------|-0-0-------------|-----------------|-0-0-------------|T
 D|---------0-0-2-4-|-----4-2-0-0-----|---------0-0-2-4-|-----4-2-0-0-----|R
 A|-0-0-2-4---------|-------------4-2-|-0-0-2-4---------|-------------4-2-|1
 E|-----------------|-----------------|-----------------|-----------------|

 


 | |


 

 
 e|---------2-2-2---|-3-3-3---2-2-2---|---------2-2-2---|-3-3-3---2-2-2---|
 B|-2-2-2-x-3-3-3-x-|-3-3-3-x-3-3-3-x-|-2-2-2-x-3-3-3-x-|-3-3-3-x-3-3-3-x-|G
 G|-2-2-2-x-2-2-2-x-|-0-0-0-x-2-2-2-x-|-2-2-2-x-2-2-2-x-|-0-0-0-x-2-2-2-x-|T
 D|-2-2-2-x-0-0-0-x-|-0-0-0-x-0-0-0-x-|-2-2-2-x-0-0-0-x-|-0-0-0-x-0-0-0-x-|R
 A|-0-0-0-x-------x-|-2-2-2-x-------x-|-0-0-0-x-------x-|-2-2-2-x---------|2
 E|-----------------|-3-3-3-----------|-----------------|-3-3-3-----------|

 


 


 then,


 


 

 
 e|-----------------|-----------------|-----------------|-----------------|
 B|-----------------|-----------------|-----------------|-----------------|G
 G|-----------------|-----------------|-----------------|-----------------|T
 D|-----------------|-----------------|-----------------|-----------------|R
 A|-0--0-4--------0-|-0--4--0---------|-0--0-4--------0-|-0--4--0---------|1
 E|---------3--0----|----------3b--0--|---------3--0----|----------3b--0--|

 


 | |


 

 
 e|-----------------|-----------------|-----------------|-----------------|
 B|-----------------|-----------------|-2~~-------------|-[2]-------------|G
 G|-----------------|-----------------|-2~~-------------|-[2]-------------|T
 D|-----------------|-----------------|-2~~-------------|-[2]-------------|R
 A|-----------------|-----------------|-0~~-------------|-[0]-------------|2
 E|-----------------|-----------------|-----------------|-----------------|

 


 


 Link


 Gtr.1 clean, Gtr.2 clean


 


 

 
 e|-----------------|-----------------|-----------------|-----------------|
 B|-----------------|-----------------|-----------------|-----------------|G
 G|-----------------|-0-0-------------|-----------------|-0-0-------------|T
 D|---------0-0-2-4-|-----4-2-0-0-----|---------0-0-2-4-|-----4-2-0-0-----|R
 A|-0-0-2-4---------|-------------4-2-|-0-0-2-4---------|-------------4-2-|1
 E|-----------------|-----------------|-----------------|-----------------|

 


 | |


 

 
 e|---------2-2-2---|-3-3-3---2-2-2---|---------2-2-2---|-3-3-3---2-2-2---|
 B|-2-2-2-x-3-3-3-x-|-3-3-3-x-3-3-3-x-|-2-2-2-x-3-3-3-x-|-3-3-3-x-3-3-3-x-|G
 G|-2-2-2-x-2-2-2-x-|-0-0-0-x-2-2-2-x-|-2-2-2-x-2-2-2-x-|-0-0-0-x-2-2-2-x-|T
 D|-2-2-2-x-0-0-0-x-|-0-0-0-x-0-0-0-x-|-2-2-2-x-0-0-0-x-|-0-0-0-x-0-0-0-x-|R
 A|-0-0-0-x-------x-|-2-2-2-x-------x-|-0-0-0-x-------x-|-2-2-2-x---------|2
 E|-----------------|-3-3-3-----------|-----------------|-3-3-3-----------|

 


 


 Verse


 Gtr.1 clean, Gtr.2 clean


 [x8] 


 

 
 e|-----------------|-----------------|-----------------|-----------------|
 B|-----------------|-----------------|-----------------|-----------------|G
 G|-----------------|-0-0-------------|-----------------|-0-0-------------|T
 D|---------0-0-2-4-|-----4-2-0-0-----|---------0-0-2-4-|-----4-2-0-0-----|R
 A|-0-0-2-4---------|-------------4-2-|-0-0-2-4---------|-------------4-2-|1
 E|-----------------|-----------------|-----------------|-----------------|

 


 | |


 

 
 e|---------2-2-2---|-3-3-3---2-2-2---|---------2-2-2---|-3-3-3---2-2-2---|
 B|-2-2-2-x-3-3-3-x-|-3-3-3-x-3-3-3-x-|-2-2-2-x-3-3-3-x-|-3-3-3-x-3-3-3-x-|G
 G|-2-2-2-x-2-2-2-x-|-0-0-0-x-2-2-2-x-|-2-2-2-x-2-2-2-x-|-0-0-0-x-2-2-2-x-|T
 D|-2-2-2-x-0-0-0-x-|-0-0-0-x-0-0-0-x-|-2-2-2-x-0-0-0-x-|-0-0-0-x-0-0-0-x-|R
 A|-0-0-0-x-------x-|-2-2-2-x-------x-|-0-0-0-x-------x-|-2-2-2-x---------|2
 E|-----------------|-3-3-3-----------|-----------------|-3-3-3-----------|

 


 [ Tab from: bttp://www.guitartabs.cc/tabs/g/green_day/warning_tab_ver_7.btml ] 


 Chorus


 Gtr.1 clean, Gtr.2 clean


 [x8] 


 

 
 e|-----------------|-----------------|-----------------|-----------------|
 B|-----------------|-----------------|-----------------|-----------------|G
 G|-----------------|-0-0-------------|-----------------|-0-0-------------|T
 D|---------0-0-2-4-|-----4-2-0-0-----|---------0-0-2-4-|-----4-2-0-0-----|R
 A|-0-0-2-4---------|-------------4-2-|-0-0-2-4---------|-------------4-2-|1
 E|-----------------|-----------------|-----------------|-----------------|

 


 | |


 

 
 e|---------2-2-2---|-3-3-3---2-2-2---|---------2-2-2---|-3-3-3---2-2-2---|
 B|-2-2-2-x-3-3-3-x-|-3-3-3-x-3-3-3-x-|-2-2-2-x-3-3-3-x-|-3-3-3-x-3-3-3-x-|G
 G|-2-2-2-x-2-2-2-x-|-0-0-0-x-2-2-2-x-|-2-2-2-x-2-2-2-x-|-0-0-0-x-2-2-2-x-|T
 D|-2-2-2-x-0-0-0-x-|-0-0-0-x-0-0-0-x-|-2-2-2-x-0-0-0-x-|-0-0-0-x-0-0-0-x-|R
 A|-0-0-0-x-------x-|-2-2-2-x-------x-|-0-0-0-x-------x-|-2-2-2-x---------|2
 E|-----------------|-3-3-3-----------|-----------------|-3-3-3-----------|

 


 


 Interlude


 Gtr.1 clean, Gtr.2 clean


 


 

 
 e|-----------------|-----------------|-----------------|-----------------|
 B|-----------------|-----------------|-----------------|-----------------|G
 G|-----------------|-----------------|-----------------|-----------------|T
 D|-----------------|-----------------|-----------------|-----------------|R
 A|-0--0-4--------0-|-0--4--0---------|-0--0-4--------0-|-0--4--0---------|1
 E|---------3--0----|----------3b--0--|---------3--0----|----------3b--0--|

 


 | |


 

 
 e|-----------------|-----------------|-----------------|-----------------|
 B|-----------------|-----------------|-2~~-------------|-[2]-------------|G
 G|-----------------|-----------------|-2~~-------------|-[2]-------------|T
 D|-----------------|-----------------|-2~~-------------|-[2]-------------|R
 A|-----------------|-----------------|-0~~-------------|-[0]-------------|2
 E|-----------------|-----------------|-----------------|-----------------|

 


 


 Verse


 Gtr.1 clean, Gtr.2 clean


 [x2] 


 

 
 e|-----------------|-----------------|-----------------|-----------------|
 B|-----------------|-----------------|-----------------|-----------------|G
 G|-----------------|-----------------|-----------------|-----------------|T
 D|-----------------|-----------------|-----------------|-----------------|R
 A|-0--0-4--------0-|-0--4--0---------|-0--0-4--------0-|-0--4--0---------|1
 E|---------3--0----|----------3b--0--|---------3--0----|----------3b--0--|

 


 | |


 

 
 e|-----------------|-----------------|-----------------|-----------------|
 B|-----------------|-----------------|-2~~-------------|-[2]-------------|G
 G|-----------------|-----------------|-2~~-------------|-[2]-------------|T
 D|-----------------|-----------------|-2~~-------------|-[2]-------------|R
 A|-----------------|-----------------|-0~~-------------|-[0]-------------|2
 E|-----------------|-----------------|-----------------|-----------------|

 


 


 then,


 [x3] 


 

 
 e|-----------------|-----------------|-----------------|-----------------|
 B|-----------------|-----------------|-----------------|-----------------|G
 G|-----------------|-0-0-------------|-----------------|-0-0-------------|T
 D|---------0-0-2-4-|-----4-2-0-0-----|---------0-0-2-4-|-----4-2-0-0-----|R
 A|-0-0-2-4---------|-------------4-2-|-0-0-2-4---------|-------------4-2-|1
 E|-----------------|-----------------|-----------------|-----------------|

 


 | |


 

 
 e|---------2-2-2---|-3-3-3---2-2-2---|---------2-2-2---|-3-3-3---2-2-2---|
 B|-2-2-2-x-3-3-3-x-|-3-3-3-x-3-3-3-x-|-2-2-2-x-3-3-3-x-|-3-3-3-x-3-3-3-x-|G
 G|-2-2-2-x-2-2-2-x-|-0-0-0-x-2-2-2-x-|-2-2-2-x-2-2-2-x-|-0-0-0-x-2-2-2-x-|T
 D|-2-2-2-x-0-0-0-x-|-0-0-0-x-0-0-0-x-|-2-2-2-x-0-0-0-x-|-0-0-0-x-0-0-0-x-|R
 A|-0-0-0-x-------x-|-2-2-2-x-------x-|-0-0-0-x-------x-|-2-2-2-x---------|2
 E|-----------------|-3-3-3-----------|-----------------|-3-3-3-----------|

 


 


 Chorus


 Gtr.1 clean, Gtr.2 clean


 [x8] 


 

 
 e|-----------------|-----------------|-----------------|-----------------|
 B|-----------------|-----------------|-----------------|-----------------|G
 G|-----------------|-0-0-------------|-----------------|-0-0-------------|T
 D|---------0-0-2-4-|-----4-2-0-0-----|---------0-0-2-4-|-----4-2-0-0-----|R
 A|-0-0-2-4---------|-------------4-2-|-0-0-2-4---------|-------------4-2-|1
 E|-----------------|-----------------|-----------------|-----------------|

 


 | |


 

 
 e|---------2-2-2---|-3-3-3---2-2-2---|---------2-2-2---|-3-3-3---2-2-2---|
 B|-2-2-2-x-3-3-3-x-|-3-3-3-x-3-3-3-x-|-2-2-2-x-3-3-3-x-|-3-3-3-x-3-3-3-x-|G
 G|-2-2-2-x-2-2-2-x-|-0-0-0-x-2-2-2-x-|-2-2-2-x-2-2-2-x-|-0-0-0-x-2-2-2-x-|T
 D|-2-2-2-x-0-0-0-x-|-0-0-0-x-0-0-0-x-|-2-2-2-x-0-0-0-x-|-0-0-0-x-0-0-0-x-|R
 A|-0-0-0-x-------x-|-2-2-2-x-------x-|-0-0-0-x-------x-|-2-2-2-x---------|2
 E|-----------------|-3-3-3-----------|-----------------|-3-3-3-----------|

 


 


 Outro


 Gtr.1 clean, Gtr.2 clean


 


 

 
 e|-----------------|-----------------|-----------------|-----------------|
 B|-----------------|-----------------|-----------------|-----------------|G
 G|-----------------|-0-0-------------|-----------------|-0-0-------------|T
 D|---------0-0-2-4-|-----4-2-0-0-----|---------0-0-2-4-|-----4-2-0-0-----|R
 A|-0-0-2-4---------|-------------4-2-|-0-0-2-4---------|-------------4-2-|1
 E|-----------------|-----------------|-----------------|-----------------|

 


 | |


 

 
 e|---------2-2-2---|-3-3-3---2-2-2---|---------2-2-2---|-3-3-3---2-2-2---|
 B|-2-2-2-x-3-3-3-x-|-3-3-3-x-3-3-3-x-|-2-2-2-x-3-3-3-x-|-3-3-3-x-3-3-3-x-|G
 G|-2-2-2-x-2-2-2-x-|-0-0-0-x-2-2-2-x-|-2-2-2-x-2-2-2-x-|-0-0-0-x-2-2-2-x-|T
 D|-2-2-2-x-0-0-0-x-|-0-0-0-x-0-0-0-x-|-2-2-2-x-0-0-0-x-|-0-0-0-x-0-0-0-x-|R
 A|-0-0-0-x-------x-|-2-2-2-x-------x-|-0-0-0-x-------x-|-2-2-2-x---------|2
 E|-----------------|-3-3-3-----------|-----------------|-3-3-3-----------|
 e|-----------------||
 B|-2---------------||
 G|-2---------------||
 D|-2---------------||
 A|-0---------------||
 E|-----------------||


Important: The song above is NOT stored on the Chordie server. The original song is hosted at www.guitartabs.cc. Chordie works as a search engine and provides on-the-fly formatting. Chordie does not index songs against artists'/composers' will. To remove this song please click here.

This song is displayed as text-only. Transposing and tuning is only available for chordpro-songs.
Rate #2 of 21 versions

Jango Player

Login - add to songbook

SHARE PAGE  




You need to log in to post comments