Guitar Tabs, Chords and Lyrics
Server problems seems to be fixed. Chordie has been experiencing problems with songs disappearing. These issues now seems to be fixed, but still verifying the fix. If you find anything strange, please email admin@chordie.com.


Itchin' on a Photograph  Grouplove

Intro/Verse
 
 |--------------------------------|--------------------------------|
 |--------------------------------|--------------------------------|
 |0-0-0-0-0-0-0-0-0-0-0-0-0-0-0-0-|0-0-0-0-0-0-0-0-0-0-0-0-0-0-0-0-|
 |5-5-5-5-5-5-5-5-4-4-4-2-2-2-2-2-|5-5-5-5-5-5-5-5-4-4-4-4-10109-0-|
 |------------------------3-3-3-3-|--------------------------------|
 |--------------------------------|--------------------------------|

Verse 1
[G] I'm itchin' on a [G/F#]photogr[C]aph, I'm[G] scratching on a thermo[G/F#]stat[C]
[G] I'm giving up on [G/F#]looking b[C]ack,[G] I'm letting go of [G/F#]what I h[C]ad
[G] I'm itchin' on a p[G/F#]hotogr[C]aph, I'm[G] scratching on a thermo[G/F#]stat[C]
[G] I'm letting go of [G/F#]all that I h[C]ad, [G] Yeah I'm itchin' on a [G/F#]photogr[C]aph
Chorus
[G] Feel the r[Em]ain come do[C]wn and you k[Am]now now
[G] Put that f[Em]ire o[C]ut, you'll b[Am]urn
[G] Ever wo[Em]nder h[C]ow you can [Am]see now
[G] That this l[Em]anding gr[C]ound is [Am]so...
PostChorus with Verse
 
 |--------------------------------|--------------------------------|
 |--------------------------------|------------------------5---8---|
 |--------7---4-b-5-r-4-------4---|--------7---4-b-5-r-4-----------|
 |0---5-------------------7-------|0---5---------------------------|
 |--------------------------------|--------------------------------|
 |--------------------------------|--------------------------------|

Verse 2
[G] I'm waiting on my [G/F#]mum and [C]dad,[G] I'm swinging on a [G/F#]branch that'll [C]last
[G] I'm going up then f[G/F#]alling b[C]ack[G], I'm itchin' on a [G/F#]photogr[C]aph
Repeat Chorus
Bridge
And it's [Bm]all while you were sleepin[C]g
It's [Bm]all while you w[C]ere
Repeat Intro
Verse 3
[G] I'm itchin' on a [G/F#]photogr[C]aph, I'm[G] scratching on a thermo[G/F#]stat[C]
[G] I'm letting go of[G/F#] all that I h[C]ad,[G] I'm living now and [G/F#]living l[C]ast
[G] I'm itchin' on a [G/F#]photogr[C]aph, I'm[G] scratching on a thermo[G/F#]stat[C]
[G] I'm letting go of [G/F#]what I h[C]ad ,[G] I'm living now and [G/F#]living l[C]oud
Solo with Verse
 
 |--------------------------------|------------------------12121515|
 |--------1515121213131212----1212|--------1515121213131212--------|
 |----1212----------------1414----|----1212------------------------|
 |1212----------------------------|1212----------------------------|
 |--------------------------------|--------------------------------|
 |--------------------------------|--------------------------------|

Woah's with G
Outro
 
 |--------------------------------|--------------------------------|
 |--------------------------------|----------------13--13--12--12--|
 |12--12--12--12--12--12--12--12--|11--11--11--9-------------------|
 |9-9-9-9-9-9-9-9-9-9-9-9-9-9-9-9-|9-9-9-9-9-9-9-9-10101010101010--|
 |--------------------------------|--------------------------------|
 |--------------------------------|--------------------------------|
 |--------------------------------|--------------------------------|
 |--------------------------------|----------------13--13--12--12--|
 |12--12--12--12--12--12--12--12--|11--11--11--9-------------------|
 |9-9-9-9-9-9-9-9-9-9-9-9-9-9-9-9-|7-7-7-7-7-7-7-7-----------------|
 |--------------------------------|---------------1010101010101010-|
 |--------------------------------|--------------------------------|

Ending on G
Alternate Intro (Piano combined with Guitar)
 
 |--------------------------------|--------------------------------|
 |--------------------------------|--------------------------------|
 |0-0-0-7-4-4-0-0-0-0-0-0-0-0-0-0-|0-0-0-7-4-4-0-0-0-0-0-0-0-0-0-0-|
 |5-5-5-5-5-5-5-5-4-4-4-2-7-7-9-9-|5-5-5-5-5-5-5-5-4-4-4-0-7-7-5-5-|
 |--------------------------------|--------------------------------|
 |--------------------------------|--------------------------------|


Important: The song above is NOT stored on the Chordie server. The original song is hosted at www.guitartabs.cc. Chordie works as a search engine and provides on-the-fly formatting. Chordie does not index songs against artists'/composers' will. To remove this song please click here.

Text color:
Chord color:
Chord grids: 
Font size:    
Page size: 

Am Bm C Em G G/F#
Rate #1 of 7 versions

Login - add to songbook

SHARE PAGE  



You need to log in to post comments