Guitar Tabs, Chords and Lyrics
Server problems seems to be fixed. Chordie has been experiencing problems with songs disappearing. These issues now seems to be fixed, but still verifying the fix. If you find anything strange, please email admin@chordie.com.


Lovely Cup  Grouplove

Bass-line on guitar
[C#] [G#] [C#] [G#] [F#] [C#] [F#] [C#]  
 
 E:--------------------------------------------------------------------------------|
 B:--------------------------------------------------------------------------------|
 G:--------------------------------------------------------------------------------|
 D:--------------------------------------------------------------------------------|x2
 A:--4--4-4-4-4---------4--4-4-4-4----------------------4---4---------------4--4---|
 E:-------------6-4-6-4------------6-4-6-4--2--2-2-2-2----6---6--2--2-2-2-2---6--6-|

Verse:
 
 E:-----------------------------------------------------------------|
 B:-----------------------------------------------------------------|
 G:-----------------------------------------------------------------|
 D:-----------------------------------------------------------------|
 A:-4--4-4---------4--4-4----------------4--4-4--------4--4\--------|
 E:--------6--6-6---------6--6-6--2--2-2--------2--2-2--------------|

[C#]You're such a [G#]lovely cup,[C#]
Why don't you [G#]fill me up?[F#]
All these [C#]reasons too [F#]hard to ex[C#]plain
[C#]So I'll drink you u[G#]p my dear,[C#]
We got it [G#]all right here[F#]
Here is [C#]now and now is [F#]where I wanna[C#] be
[F#] [B] [C#] [F#] [B] [F#]  
 
 E:-------------------------------------|------------------------------------|
 B:------2-------4--------6---4h6-4-----|-----2--------4----2-2-2-2-2-2...---|
 G:----------------4--------6-------6---|----------------4--3-3-3-3-3-3...---|
 D:--------3----4-------6-------------6-|-------3----4------4-4-4-4-4-4...---|
 A:----4------2-------4-----------------|---4------2--------4-4-4-4-4-4...---|
 E:--2----------------------------------|-2-----------------2-2-2-2-2-2...---|

Alora si, you belong to me
[C#] [G#] [C#] [G#] [F#] [C#] [F#] [C#]  
 
 E:------------|-----------------------------------------------------6p4-6p4-6p4~--6p4-6p4-6p4~-|
 B:-14x8-13x5--|-14-14-14-14-14-14-9-7-6---14-14-14-14-14-14-9-7-6------------------------------|
 G:------------|--------------------------------------------------------------------------------|
 D:------------|--------------------------------------------------------------------------------|
 A:------------|--------------------------------------------------------------------------------|
 E:------------|--------------------------------------------------------------------------------|

[C#] [G#] [C#] [G#] [F#] [C#] [F#] [C#]  
 
 E:--------------------------------------------------------6p4-6p4-6p4~s9--6p4-6p4-6p4~-|
 B:----14-14-14-14-14-14-9-7-6---14-14-14-14-14-14-9-7-6--------------------------------|
 G:-------------------------------------------------------------------------------------|
 D:-------------------------------------------------------------------------------------|
 A:-------------------------------------------------------------------------------------|
 E:-------------------------------------------------------------------------------------|

[C#]And I had to [G#]get away,[C#]
From this here [G#]masquerad[F#]e
Comes a [C#]time when a [F#]man loses his[C#] mind
[C#]It's such a [G#]mystery,[C#] my mind [G#]philosophy[F#]
What to [C#]do when we [F#]do have some t[G#]ime
[F#]Alo[B]ra [C#]si, [F#]you bel[B]ong to [C#]me
[F#]Alo[B]ra [C#]so, [F#]never l[B]et you [F#]go
(No no never let you go)
[C#] [G#] [C#] [G#] [F#] [C#] [F#] [C#] 
[C#] [G#] [C#] [G#] [F#] [C#] [F#] [C#] 
[A] [B] [C#]  
[A] [B] [C#]  
[A] [B] [C#]  
 
 E:--9-9-9-9-9---11-11-11-11-11--13-13-13--13-13-13--13-14-13-11-13---|
 B:--1010101010--12-12-12-12-12--14-14-14--14-14-14-------------------|
 G:--9-9-9-9-9---11-11-11-11-11--13-13-13--13-13-13-------------------|
 D:--8-8-8-8-8---10-10-10-10-10---------------------------------------|
 A:-------------------------------------------------------------------|
 E:-------------------------------------------------------------------|

[A] [B] [C#]  
 
 E:--9-9-9-9-9---11-11-11-11-11--13-13-13-13-13-13-13-13-13--|
 B:--1010101010--12-12-12-12-12--14-14-14-14-14-14-14-14-14--|
 G:--9-9-9-9-9---11-11-11-11-11--13-13-13-13-13-13-13-13-13--|
 D:--8-8-8-8-8---10-10-10-10-10------------------------------|
 A:----------------------------------------------------------|
 E:----------------------------------------------------------|

[C#]You're such a l[G#]ovely c[C#]up,[G#]
[F#]Why don't you f[C#]ill me [F#]up?[C#]
(x6)
[C#] [G#] [C#] [G#] [F#] [C#] [F#] [C#] 
ou hey yeah, hey yeah!
ou hey yeah, hey yeah!

Important: The song above is NOT stored on the Chordie server. The original song is hosted at www.guitartabs.cc. Chordie works as a search engine and provides on-the-fly formatting. Chordie does not index songs against artists'/composers' will. To remove this song please click here.

Text color:
Chord color:
Chord grids: 
Font size:    
Page size: 

A B C# F# G#
Rate #1 of 2 versions

Jango Player

Login - add to songbook

SHARE PAGE  



You need to log in to post comments