Guitar Tabs, Chords and Lyrics
Server problems seems to be fixed. Chordie has been experiencing problems with songs disappearing. These issues now seems to be fixed, but still verifying the fix. If you find anything strange, please email admin@chordie.com.


Ways to Go  Grouplove

 
 -----------------------------------------------------------------------------

SONG NAME - Band Name
 
 -----------------------------------------------------------------------------

Tabbed by:Quentin Ames
This is the tab for the video tutorial
over here-->>>http://www.youtube.com/watch?v=nYNzI4NpRak
People have been asking for these periodically and I hope this helps with the song.
Tuning:EADGBe
[C] [G] [Em] [D] [Am]  
 
 e|-----x-----------3-------------x--------------2---------------5-----------|
 B|-----5-----------3-------------x--------------3---------------5-----------|
 G|-----5-----------4-------------x--------------2---------------5-----------|
 D|-----5-----------5-------------2--------------0---------------7-----------|
 A|-----3-----------5-------------2------------------------------7-----------|
 E|-----------------3-------------0------------------------------5-----------|

Heres the main riff (Helps to play it with your lips stuck out)
 
 e|--------------------------------------------------------------------------|
 B|-----------5-----3-----------5-----3--------------------------------------|
 G|-----------5-----4-----4-----5-----4--------------------------------------|
 D|-----------------------5--------------------------------------------------|
 A|--------------------------------------------------------------------------|
 E|--------------------------------------------------------------------------|

Here are the chords that are played for the verses, pre-chorus, chorus and breakdown.
The verse is played with the riff and the addition of another chord, either G, Em or D.
That chord is played by strumming eighth notes. The chorus chords are played by
strumming 16th notes loosely following the rhythm of the vocalist.
Verse
riff G
I didn?t ask for that
riff G
You gimme heart attack
riff Em
I didn?t want to care
riff G
And then I saw you there
riff G
Been working like a dog
riff G
I turned all my dreams off
riff Em
I didn't know my name
riff G
I didn?t know my name
Pre-Chorus
[C]I?ve got a little bit longer
[G]I've got a ways to [Em]go
[C]I got a little bit longer
[G]I got a ways to [Em]go
[C]Oh I got a little bit longer
[G]I got a ways to [Am]go
[C]oh-oh whoa oh oh
[G]I got a ways to [Em]go
Chorus
[C]Even when I can?t see my rearview
[G]Even when I call just to hear [Em]you
[C]Even when I sleep all day
[G]Even when I sleep all [Em]day
[C]Even when I work it likes I?m times two
[G]Livin? in the back of the bunk just like we [Am]do
[C]Even when I dream all day
Verse 2
Riff G
Don?t wanna sleep tonight
Riff G
You got me feeling right
Riff Em
I didn't know my name
Riff D
I didn't know my name
So that's pretty much it, the only other part is the Breakdown. The chord progression is...
C, G, Em x2
C, G, Am
C, G, Em
C, G, Am
C, G, Em

Important: The song above is NOT stored on the Chordie server. The original song is hosted at www.guitartabs.cc. Chordie works as a search engine and provides on-the-fly formatting. Chordie does not index songs against artists'/composers' will. To remove this song please click here.

Text color:
Chord color:
Chord grids: 
Font size:    
Page size: 

Am C D Em G
Rate #0 of 5 versions

Jango Player

Login - add to songbook

SHARE PAGE  



You need to log in to post comments