Guitar Tabs, Chords and Lyrics
Update 25:10. 13:00. Site is back up running again. Songbooks are recovered. Woring on getting search back up..


Demons  Guster

Capo 5
All chords based off the capo.
Intro (version 1)
 
 e|---------0-----0--0-0----0--0-0----0--0-0-----0--0--0--0--0--0--0--0--|
 B|---------3/5---5--5-5\3--3--3-3\1--1--1-1p0---0--0--x--x--x--3--3--3--|
 G|----------------------------------------------------2--2--2-----------| x2
 D|----------------------------------------------------------------------|
 A|----------------------------------------------------------------------|
 E|----------------------------------------------------------------------|

or
Intro (version 2)
 
 e|---------0-----0--0-0----0--0-0----0--0-0-----0--0-0----0--0-0----0--0--|
 B|---------x-----x--x-x----x--x-x----x--x-x-----x--x-x----x--x-x----x--x--|
 G|---------7/9---9--9-9\7--7--7-7\5--5--5-5\4---4--4-4\2--2--2-2/7--7--7--| x2
 D|------------------------------------------------------------------------|
 A|------------------------------------------------------------------------|
 E|------------------------------------------------------------------------|

Em C G D x2
Verse 1
(mute)Em C G D
My words confuse you
(mute)Em C G D
My eyes donít move a blink
(mute)Em C G D
Cause itís easier sometimes
Not to [Em]be sinc[C]ere
Someh[G]ow I [D]made you [Em]believ[C]e [G] [D]
Be[Em]lieve [C] [G] [D]
Refrain
[Em]When I spe[C]ak I [G]cross my [D]fingers
[Em]Will you k[C]now youíve b[G]een dece[D]ived?
I f[Em]ind a n[C]eed to b[G]e the de[D]mon
A d[Em]emon canno[C]t be hu[G]rt [D]
Solo (still working on this, but here's the basic sound)
 
 e|----------------------------------------------------------|
 B|----------------------------------------------------------|
 G|----------7---5---4---2---0--(0)---7---5---4---5---4--(4)-| x2
 D|----------------------------------------------------------|
 A|----------------------------------------------------------|
 E|----------------------------------------------------------|

Following verse and refrains use the same chords as above. I know they don't
sound totally right, but its a start.
Verse 2
Honest is easy
Fiction is where genius lies
Cause itís easier sometimes
Not to be involved
Somehow I made you believe
Believe
Refrain
When I speak I cross my fingers
Will you know youíve been deceived?
I find a need to be the demon
A demon cannot be hurt
Bridge
(Intro x4)
Em C G D x2
Refrain (x2)
When I speak I cross my fingers
Will you know youíve been deceived?
I find a need to be the demon
A demon cannot be hurt
When I speak I cross my fingers
Will you know youíve been deceived?
I find a need to be the demon
A demon cannot be hurt
Outro
 
 e|---------0-----0--0-0----0--0-0----0--0-0-----0--0--0--0--0--0--0--0--|
 B|---------3/5---5--5-5\3--3--3-3\1--1--1-1p0---0--0--x--x--x--3--3--3--|
 G|----------------------------------------------------2--2--2-----------| x2
 D|----------------------------------------------------------------------|
 A|----------------------------------------------------------------------|
 E|----------------------------------------------------------------------|
 e|---------0-----0--0-0----0--0-0----0--0-0-----0--0--0--0--0--0--0--0--|
 B|---------3/5---5--5-5\3--3--3-3/7--7--7-7/8---8--8--x--x--x--3--3--3--|
 G|----------------------------------------------------2--2--2-----------|
 D|----------------------------------------------------------------------|
 A|----------------------------------------------------------------------|
 E|----------------------------------------------------------------------|
 e|---------0-----0--0-0----0--0-0----0--0-0-----0--0--0--0--0--0--0--0--0----|
 B|---------3/5---5--5-5\3--3--3-3\1--1--1-1p0---0--0--x--x--x--3--3--3--3/5--|
 G|----------------------------------------------------2--2--2----------------|
 D|---------------------------------------------------------------------------|
 A|---------------------------------------------------------------------------|
 E|---------------------------------------------------------------------------|


Important: The song above is NOT stored on the Chordie server. The original song is hosted at www.guitartabs.cc. Chordie works as a search engine and provides on-the-fly formatting. Chordie does not index songs against artists'/composers' will. To remove this song please click here.

Text color:
Chord color:
Chord grids: 
Font size:    
Page size: 

C D Em G
Rate #1 of 4 versions

Jango Player

Login - add to songbook

SHARE PAGE  



You need to log in to post comments