Guitar Tabs, Chords and Lyrics
Update 25:10. 13:00. Site is back up running again. Songbooks are recovered. Woring on getting search back up..


Looking Out for #1  Guttermouth

Song: Looking Out For #1
Artist: Guttermouth
Album: Gusto
Year: 2002
Tabbed by: Jason Kan (jason_902@hotmail.com)
Chords used:
Intro:
E|--[D]---|
B|-----|
G|--5--|
D|--5--|
A|--3--|
D|-----|
Verse & Chorus: verse is palm muted
[D] [G] [D] [A] [D] [G] [A] [D]  
 
 E|--------------------------|
 B|--------------------------|
 G|--5-----5------5--------5--|
 D|--5--5--5--7---5--5--7--5--|
 A|--3--5--3--7---3--5--7--3-|
 D|-----3-----5------3--5-----|

( Tab from: http://www.guitartabs.cc/tabs/g/guttermouth/looking_out_for_1_tab.html )
Solo part: used after the first verse and at the end
 
 E|--5--55p3p2-3-32h3h5-5-5-5p3p2-------------2-3--3-3p2p0---------------|
 B|---------------------------------5--3--3-3h5--------------------0--2--3-|
 G|----------------------------------------------------------2--2----------|
 D|------------------------------------------------------------------------|
 A|------------------------------------------------------------------------|
 D|------------------------------------------------------------------------|

End: ARGH!
E|--[D]---|
B|-----|
G|--5--|
D|--5--|
A|--3--|
D|-----|
Very simple and great song :)
funni band.

Important: The song above is NOT stored on the Chordie server. The original song is hosted at www.guitartabs.cc. Chordie works as a search engine and provides on-the-fly formatting. Chordie does not index songs against artists'/composers' will. To remove this song please click here.

Text color:
Chord color:
Chord grids: 
Font size:    
Page size: 

A D G
Rate #1 of 2 versions

Login - add to songbook

SHARE PAGE  




You need to log in to post comments