Guitar Tabs, Chords and Lyrics
Major upgrade!! After one year development the new version of Chordie is now online! Please give feedback.


Take No   Hale

 
 E|--9-9-7-7-10-10------------------------|
 A|----------------9--9--10-10-9-9--------|
 D|------------------9-9-----------9-9----|
 G|------------------------------------9--| 4x
 B|---------------------------------------|
 e|---------------------------------------|

 


 


 [Verse] A-C#m


 

 
 E|--------|
 A|--------|
 D|-----6--|
 G|--7--6--| 4x
 B|--7--4--|
 e|--5-----|

 


 


 [Refrain] D-C#m


 

 
 E|--------|
 A|--------|
 D|--7--6--|
 G|--7--6--|
 B|--5--4--|
 e|--------|

 


 


 [Intro] A-C#m


 

 
 E|--9-9-7-7-10-10------------------------|
 A|----------------9--9--10-10-9-9--------|
 D|------------------9-9-----------9-9----|
 G|------------------------------------9--| 2x
 B|---------------------------------------|
 e|---------------------------------------|

 


 


 [Verse] A-C#m


 

 
 E|--------|
 A|--------|
 D|-----6--|
 G|--7--6--| 4x
 B|--7--4--|
 e|--5-----|

 


 


 [Refrain] D-C#m


 

 
 E|--------|
 A|--------|
 D|--7--6--|
 G|--7--6--| 2x
 B|--5--4--|
 e|--------|

 


 


 [Cborus] A-C#m


 

 
 E|--------|
 A|--------|
 D|-----6--|
 G|--7--6--| 2x
 B|--7--4--|
 e|--5-----|

 


 


 [Bridge] A-C#m


 

 
 E|--------|
 A|--------|
 D|-----6--|
 G|--7--6--| 4x
 B|--7--4--|
 e|--5-----|

 


 


 [Refrain] D-C#m


 

 
 E|--------|
 A|--------|
 D|--7--6--|
 G|--7--6--| 2x
 B|--5--4--|
 e|--------|

 


 


 [Ad-Lib] 


 


 [Outro] A-C#m


 

 
 E|--------|
 A|--------|
 D|-----6--|
 G|--7--6--| 4x
 B|--7--4--|
 e|--5-----|


Important: The song above is NOT stored on the Chordie server. The original song is hosted at www.guitartabs.cc. Chordie works as a search engine and provides on-the-fly formatting. Chordie does not index songs against artists'/composers' will. To remove this song please click here.

This song is displayed as text-only. Transposing and tuning is only available for chordpro-songs.
Rate #1 of 7 versions

Jango Player

Login - add to songbook

SHARE PAGE  




You need to log in to post comments