Guitar Tabs, Chords and Lyrics
Update 25:10. 13:00. Site is back up running again. Songbooks are recovered. Woring on getting search back up..


Keep the Flame Burning  HammerFall

Keep The Flame Burning
Transcribed by an unregistered user
HammerFall
Magnus RosÚn (Bass)
W W W
 
 G||-------------------|-------------------|-------------------|
 D||-------------------|-------------------|-------------------|
 A||-------------------|-------------------|-------------------|
 E||-------------------|-------------------|-------------------|

E Q Q E Q Q H Q W
 
 -----------------------|---------------------|-------------------|
 -----------------------|---------------------|-------------------|
 -----------------------|---------------------|-------------------|
 --5--7----7----L--L----|-------9--------L----|--L----------------|

Q H Q E Q Q Q E
 
 ---------------------|-----------------------|
 ---------------------|-----------------------|
 ---------------------|-----------------------|
 -------9--------L----|--5--7----7----L----L--|

S S S S S S S S S S S S S S S S S S S S S S S S S S S S S S S S
 
 ----------------------------------|----------------------------------|
 ----------------------------------|----------------------------------|
 --4-4-4-4-4-4-4-4-4-4-4-4-4-4-4-4-|--4-4-4-4-4-4-4-4-4-4-4-4-4-4-4-4-|
 ----------------------------------|----------------------------------|

S S S S S S S S S S S S S S S S E Q Q E Q
 
 ----------------------------------|-----------------------|
 ----------------------------------|-----------------------|
 --4-4-4-4-4-4-4-4-4-4-4-4-4-4-4-4-|-----------------------|
 ----------------------------------|--5--7----7----L--L----|

S S S S S S S S S S S S S S S S S S S S S S S S S S S S S S S S
 
 ----------------------------------|----------------------------------|
 ----------------------------------|----------------------------------|
 --4-4-4-4-4-4-4-4-4-4-4-4-4-4-4-4-|--4-4-4-4-4-4-4-4-4-4-4-4-4-4-4-4-|
 ----------------------------------|----------------------------------|

S S S S S S S S S S S S S S S S E Q Q E Q
 
 ----------------------------------|-----------------------|
 ----------------------------------|-----------------------|
 --4-4-4-4-4-4-4-4-4-4-4-4-4-4-4-4-|-----------------------|
 ----------------------------------|--5--7----7----L--L----|

E Q Q E Q E Q Q E Q
 
 -----------------------|-----------------------|
 -----------------------|-----------------------|
 -----------------------|-----------------------|
 --5--7----7----L--L----|--5--7----7----L--L----|

S S S S S S S S S S S S S S S S S S S S S S S S S S S S S S S S
 
 |-----------------------------------|----------------------------------|
 |*----------------------------------|----------------------------------|
 |*--4-4-4-4-4-4-4-4-4-4-4-4-4-4-4-4-|--4-4-4-4-4-4-4-4-4-4-4-4-4-4-4-4-|
 |-----------------------------------|----------------------------------|

S S S S S S S S S S S S S S S S S S S S S S S S S S S S S S S S
 
 ----------------------------------|----------------------------------|
 ----------------------------------|----------------------------------|
 --4-4-4-4-4-4-4-4-4-4-4-4-4-4-4-4-|--4-4-4-4-4-4-4-4-4-4-4-4-4-4-4-4-|
 ----------------------------------|----------------------------------|

S S S S S S S S S S S S S S S S S S S S S S S S S S S S S S S S
 
 ----------------------------------|----------------------------------|
 ----------------------------------|----------------------------------|
 --4-4-4-4-4-4-4-4-4-4-4-4-4-4-4-4-|--4-4-4-4-4-4-4-4-4-4-4-4-4-4-4-4-|
 ----------------------------------|----------------------------------|

S S S S S S S S S S S S S S S S S S S S S S S S S S S S S S S S
 
 ----------------------------------|-----------------------------------||
 ----------------------------------|----------------------------------*||
 --4-4-4-4-4-4-4-4-4-4-4-4-4-4-4-4-|--4-4-4-4-4-4-4-4-4-4-4-4-4-4-4-4-*||
 ----------------------------------|-----------------------------------||

[E] [E] [E] [E] [E] [E] [E] [E] [E] [E] [E] [E] [E] [E] [E] [E]  
 
 --------------------------|--------------------------|
 --------------------------|--------------------------|
 --------------------------|--------------------------|
 --4--4--4--4--4--4--4--4--|--5--5--5--5--5--5--5--5--|

[E] [E] [E] [E] [E] [E] [E] [E] [E] [E] [E] [E] [E] [E] [E] [E]  
 
 --------------------------|--------------------------|
 --------------------------|--------------------------|
 --------------------------|--2--2--2--2--2--2--2--2--|
 --2--2--2--2--2--2--2--2--|--------------------------|

S S S S S S S S S S S S S S S S S S S S S S S S S S S S S S S S
 
 ----------------------------------|----------------------------------|
 ----------------------------------|----------------------------------|
 ----------------------------------|----------------------------------|
 --4-4-4-4-4-4-4-4-4-4-4-4-4-4-4-4-|--5-5-5-5-5-5-5-5-5-5-5-5-5-5-5-5-|

S S S S S S S S S S S S S S S S S S S S S S S S S S S S S S S S
 
 ----------------------------------|----------------------------------|
 --4-4-4-4-4-4-4-4-4-4-4-4-4-4-4-4-|--4-4-4-4-4-4-4-4-4-4-4-4-4-4-4-4-|
 ----------------------------------|----------------------------------|
 ----------------------------------|----------------------------------|

S S S S S S S S S S S S S S S S S S S S S S S S S S S S S S S S
 
 ----------------------------------|----------------------------------|
 ----------------------------------|----------------------------------|
 --5-5-5-5-5-5-5-5-5-5-5-5-5-5-5-5-|--0-0-0-0-0-0-0-0-0-0-0-0-0-0-0-0-|
 ----------------------------------|----------------------------------|

S S S S S S S S S S S S S S S S S S S S S S S S S S S S S S S S
 
 ----------------------------------|----------------------------------|
 ----------------------------------|----------------------------------|
 ----------------------------------|--2-2-2-2-2-2-2-2-2-2-2-2-2-2-2-2-|
 --0-0-0-0-0-0-0-0-0-0-0-0-0-0-0-0-|----------------------------------|

S S S S S S S S S S S S S S S S S S S S S S S S S S S S S S S S
 
 ----------------------------------|----------------------------------|
 ----------------------------------|----------------------------------|
 --5-5-5-5-5-5-5-5-5-5-5-5-5-5-5-5-|--0-0-0-0-0-0-0-0-0-0-0-0-0-0-0-0-|
 ----------------------------------|----------------------------------|

S S S S S S S S S S S S S S S S S S S S S S S S S S S S S S S S
 
 ----------------------------------|----------------------------------|
 ----------------------------------|----------------------------------|
 ----------------------------------|--2-2-2-2-2-2-2-2-2-2-2-2-2-2-2-2-|
 --0-0-0-0-0-0-0-0-0-0-0-0-0-0-0-0-|----------------------------------|

S S S S S S S S S S S S S S S S S S S S S S S S S S S S S S S S
 
 ----------------------------------|----------------------------------|
 ----------------------------------|----------------------------------|
 --4-4-4-4-4-4-4-4-4-4-4-4-4-4-4-4-|--4-4-4-4-4-4-4-4-4-4-4-4-4-4-4-4-|
 ----------------------------------|----------------------------------|

S S S S S S S S S S S S S S S S E Q Q E Q
 
 ----------------------------------|-----------------------|
 ----------------------------------|-----------------------|
 --4-4-4-4-4-4-4-4-4-4-4-4-4-4-4-4-|-----------------------|
 ----------------------------------|--5--7----7----L--L----|

S S S S S S S S S S S S S S S S S S S S S S S S S S S S S S S S
 
 ----------------------------------|----------------------------------|
 ----------------------------------|----------------------------------|
 --4-4-4-4-4-4-4-4-4-4-4-4-4-4-4-4-|--4-4-4-4-4-4-4-4-4-4-4-4-4-4-4-4-|
 ----------------------------------|----------------------------------|

S S S S S S S S S S S S S S S S E Q Q E Q
 
 ----------------------------------|-----------------------|
 ----------------------------------|-----------------------|
 --4-4-4-4-4-4-4-4-4-4-4-4-4-4-4-4-|-----------------------|
 ----------------------------------|--5--7----7----L--L----|

E Q Q E Q E Q Q E Q
 
 -----------------------|-----------------------|
 -----------------------|-----------------------|
 -----------------------|-----------------------|
 --5--7----7----L--L----|--5--7----7----L--L----|

S S S S S S S S S S S S S S S S S S S S S S S S S S S S S S S S
 
 ----------------------------------|----------------------------------|
 ----------------------------------|----------------------------------|
 --4-4-4-4-4-4-4-4-4-4-4-4-4-4-4-4-|--4-4-4-4-4-4-4-4-4-4-4-4-4-4-4-4-|
 ----------------------------------|----------------------------------|

S S S S S S S S S S S S S S S S S S S S S S S S S S S S S S S S
 
 ----------------------------------|----------------------------------|
 ----------------------------------|----------------------------------|
 --4-4-4-4-4-4-4-4-4-4-4-4-4-4-4-4-|--4-4-4-4-4-4-4-4-4-4-4-4-4-4-4-4-|
 ----------------------------------|----------------------------------|

S S S S S S S S S S S S S S S S S S S S S S S S S S S S S S S S
 
 ----------------------------------|----------------------------------|
 ----------------------------------|----------------------------------|
 --4-4-4-4-4-4-4-4-4-4-4-4-4-4-4-4-|--4-4-4-4-4-4-4-4-4-4-4-4-4-4-4-4-|
 ----------------------------------|----------------------------------|

S S S S S S S S S S S S S S S S S S S S S S S S S S S S S S S S
 
 ----------------------------------|----------------------------------|
 ----------------------------------|----------------------------------|
 --4-4-4-4-4-4-4-4-4-4-4-4-4-4-4-4-|--4-4-4-4-4-4-4-4-4-4-4-4-4-4-4-4-|
 ----------------------------------|----------------------------------|

[E] [E] [E] [E] [E] [E] [E] [E] [E] [E] [E] [E] [E] [E] [E] [E]  
 
 --------------------------|--------------------------|
 --------------------------|--------------------------|
 --------------------------|--------------------------|
 --4--4--4--4--4--4--4--4--|--5--5--5--5--5--5--5--5--|

[E] [E] [E] [E] [E] [E] [E] [E] [E] [E] [E] [E] [E] [E] [E] [E]  
 
 --------------------------|--------------------------|
 --------------------------|--------------------------|
 --------------------------|--2--2--2--2--2--2--2--2--|
 --2--2--2--2--2--2--2--2--|--------------------------|

S S S S S S S S S S S S S S S S S S S S S S S S S S S S S S S S
 
 ----------------------------------|----------------------------------|
 ----------------------------------|----------------------------------|
 ----------------------------------|----------------------------------|
 --4-4-4-4-4-4-4-4-4-4-4-4-4-4-4-4-|--5-5-5-5-5-5-5-5-5-5-5-5-5-5-5-5-|

S S S S S S S S S S S S S S S S S S S S S S S S S S S S S S S S
 
 ----------------------------------|----------------------------------|
 --4-4-4-4-4-4-4-4-4-4-4-4-4-4-4-4-|--4-4-4-4-4-4-4-4-4-4-4-4-4-4-4-4-|
 ----------------------------------|----------------------------------|
 ----------------------------------|----------------------------------|

S S S S S S S S S S S S S S S S S S S S S S S S S S S S S S S S
 
 ----------------------------------|----------------------------------|
 ----------------------------------|----------------------------------|
 --5-5-5-5-5-5-5-5-5-5-5-5-5-5-5-5-|--0-0-0-0-0-0-0-0-0-0-0-0-0-0-0-0-|
 ----------------------------------|----------------------------------|

S S S S S S S S S S S S S S S S S S S S S S S S S S S S S S S S
 
 ----------------------------------|----------------------------------|
 ----------------------------------|----------------------------------|
 ----------------------------------|--2-2-2-2-2-2-2-2-2-2-2-2-2-2-2-2-|
 --0-0-0-0-0-0-0-0-0-0-0-0-0-0-0-0-|----------------------------------|

S S S S S S S S S S S S S S S S S S S S S S S S S S S S S S S S
 
 ----------------------------------|----------------------------------|
 ----------------------------------|----------------------------------|
 --5-5-5-5-5-5-5-5-5-5-5-5-5-5-5-5-|--0-0-0-0-0-0-0-0-0-0-0-0-0-0-0-0-|
 ----------------------------------|----------------------------------|

S S S S S S S S S S S S S S S S S S S S S S S S S S S S S S S S
 
 ----------------------------------|----------------------------------|
 ----------------------------------|----------------------------------|
 ----------------------------------|--2-2-2-2-2-2-2-2-2-2-2-2-2-2-2-2-|
 --0-0-0-0-0-0-0-0-0-0-0-0-0-0-0-0-|----------------------------------|

S S S S S S S S S S S S S S S S S S S S S S S S S S S S S S S S
 
 ----------------------------------|----------------------------------|
 ----------------------------------|----------------------------------|
 --5-5-5-5-5-5-5-5-5-5-5-5-5-5-5-5-|--0-0-0-0-0-0-0-0-0-0-0-0-0-0-0-0-|
 ----------------------------------|----------------------------------|

S S S S S S S S S S S S S S S S S S S S S S S S S S S S S S S S
 
 ----------------------------------|----------------------------------|
 ----------------------------------|----------------------------------|
 ----------------------------------|--2-2-2-2-2-2-2-2-2-2-2-2-2-2-2-2-|
 --0-0-0-0-0-0-0-0-0-0-0-0-0-0-0-0-|----------------------------------|

S S S S S S S S S S S S S S S S S S S S S S S S S S S S S S S S
 
 ----------------------------------|----------------------------------|
 ----------------------------------|----------------------------------|
 --5-5-5-5-5-5-5-5-5-5-5-5-5-5-5-5-|--0-0-0-0-0-0-0-0-0-0-0-0-0-0-0-0-|
 ----------------------------------|----------------------------------|

S S S S S S S S S S S S S S S S S S S S S S S S S S S S S S S S
 
 ----------------------------------|----------------------------------|
 ----------------------------------|----------------------------------|
 ----------------------------------|--2-2-2-2-2-2-2-2-2-2-2-2-2-2-2-2-|
 --0-0-0-0-0-0-0-0-0-0-0-0-0-0-0-0-|----------------------------------|

S S S S S S S S S S S S S S S S S S S S S S S S S S S S S S S S
 
 ----------------------------------|----------------------------------|
 ----------------------------------|----------------------------------|
 ----------------------------------|----------------------------------|
 --7-7-7-7-7-7-7-7-7-7-7-7-7-7-7-7-|--7-7-7-7-7-7-5-5-5-5-5-5-5-5-5-5-|

S S S S S S S S S S S S S S S S S S S S S S S S S S S S S S S S
 
 ----------------------------------|----------------------------------|
 ----------------------------------|----------------------------------|
 ----------------------------------|----------------------------------|
 --5-5-5-5-5-5-3-3-3-3-3-3-3-3-3-3-|--3-3-3-3-3-3-3-3-3-3-3-3-5-5-5-5-|

S S S S S S S S S S S S S S S S S S S S S S S S S S S S S S S S
 
 ----------------------------------|----------------------------------|
 ----------------------------------|----------------------------------|
 ----------------------------------|----------5-5-5-5-5-5-5-5-5-5-5-5-|
 --7-7-7-7-7-7-7-7-7-7-7-7-7-7-7-7-|--7-7-7-7-------------------------|

S S S S S S S S S S S S S S S S S S S S S S S S S S S S S S S S
 
 ----------------------------------|----------------------------------|
 ----------------------------------|----------------------------------|
 ----------------------------------|----------------------------------|
 --7-7-7-7-7-7-7-7-7-7-7-7-7-7-7-7-|--7-7-7-7-7-7-7-7-7-7-7-7-7-7-7-7-|

S S S S S S S S S S S S S S S S S S S S S S S S S S S S S S S S
 
 ----------------------------------|----------------------------------|
 ----------------------------------|----------------------------------|
 ----------------------------------|----------------------------------|
 --7-7-7-7-7-7-7-7-7-7-7-7-7-7-7-7-|--7-7-7-7-7-7-5-5-5-5-5-5-5-5-5-5-|

S S S S S S S S S S S S S S S S S S S S S S S S S S S S S S S S
 
 ----------------------------------|----------------------------------|
 ----------------------------------|----------------------------------|
 ----------------------------------|----------------------------------|
 --5-5-5-5-5-5-3-3-3-3-3-3-3-3-3-3-|--3-3-3-3-3-3-3-3-3-3-3-3-5-5-5-5-|

S S S S S S S S S S S S S S S S S S S S S S S S S S S S S S S S
 
 ----------------------------------|----------------------------------|
 ----------------------------------|----------------------------------|
 ----------------------------------|----------5-5-5-5-5-5-5-5-5-5-5-5-|
 --7-7-7-7-7-7-7-7-7-7-7-7-7-7-7-7-|--7-7-7-7-------------------------|

S S S S S S S S S S S S S S S S S S S S S S S S S S S S S S S S
 
 ----------------------------------|----------------------------------|
 ----------------------------------|----------------------------------|
 ----------------------------------|----------------------------------|
 --7-7-7-7-7-7-7-7-7-7-7-7-7-7-7-7-|--7-7-7-7-7-7-7-7-7-7-7-7-7-7-7-7-|

S S S S S S S S S S S S S S S S S S S S S S S S S S S S S S S S
 
 ----------------------------------|----------------------------------|
 ----------------------------------|----------------------------------|
 ----------------------------------|----------------------------------|
 --7-7-7-7-7-7-7-7-7-7-7-7-7-7-7-7-|--7-7-7-7-7-7-7-7-7-7-7-7-7-7-7-7-|

S S S S S S S S S S S S S S S S S S S S S S S S S S S S S S S S
 
 ----------------------------------|----------------------------------|
 ----------------------------------|----------------------------------|
 ----------------------------------|----------------------------------|
 --7-7-7-7-7-7-7-7-7-7-7-7-7-7-7-7-|--3-3-3-3-3-3-3-3-5-5-5-5-5-5-5-5-|

S S S S S S S S S S S S S S S S S S S S S S S S S S S S S S S S
 
 ----------------------------------|----------------------------------|
 ----------------------------------|----------------------------------|
 ----------------------------------|----------------------------------|
 --7-7-7-7-7-7-7-7-7-7-7-7-7-7-7-7-|--7-7-7-7-7-7-7-7-7-7-7-7-7-7-7-7-|

S S S S S S S S S S S S S S S S S S S S S S S S S S S S S S S S
 
 ----------------------------------|----------------------------------|
 ----------------------------------|----------------------------------|
 ----------------------------------|----------------------------------|
 --0-0-0-0-0-0-0-0-0-0-0-0-0-0-0-0-|--3-3-3-3-3-3-3-3-5-5-5-5-5-5-5-5-|

S S S S S S S S S S S S S S S S S S S S S S S S S S S S S S S S
 
 ----------------------------------|----------------------------------|
 ----------------------------------|----------------------------------|
 ----------------------------------|----------------------------------|
 --7-7-7-7-7-7-7-7-7-7-7-7-7-7-7-7-|--7-7-7-7-7-7-7-7-7-7-7-7-7-7-7-7-|

S S S S S S S S S S S S S S S S S S S S S S S S S S S S S S S S
 
 ----------------------------------|----------------------------------|
 ----------------------------------|----------------------------------|
 ----------------------------------|----------------------------------|
 --7-7-7-7-7-7-7-7-7-7-7-7-7-7-7-7-|--3-3-3-3-3-3-3-3-5-5-5-5-5-5-5-5-|

S S S S S S S S S S S S S S S S S S S S S S S S S S S S S S S S
 
 ----------------------------------|----------------------------------|
 ----------------------------------|----------------------------------|
 ----------------------------------|----------------------------------|
 --7-7-7-7-7-7-7-7-7-7-7-7-7-7-7-7-|--7-7-7-7-7-7-7-7-7-7-7-7-7-7-7-7-|

S S S S S S S S S S S S S S S S S S S S S S S S S S S S S S S S
 
 ----------------------------------|----------------------------------|
 ----------------------------------|----------------------------------|
 ----------------------------------|----------------------------------|
 --0-0-0-0-0-0-0-0-0-0-0-0-0-0-0-0-|--3-3-3-3-3-3-3-3-5-5-5-5-5-5-5-5-|

S S S S S S S S S S S S S S S S S S S S S S S S S S S S S S S S
 
 ----------------------------------|----------------------------------|
 ----------------------------------|----------------------------------|
 ----------------------------------|----------------------------------|
 --7-7-7-7-7-7-7-7-7-7-7-7-7-7-7-7-|--5-5-5-5-5-5-5-5-5-5-5-5-5-5-5-5-|

S S S S S S S S S S S S S S S S S S S S S S S S S S E. E.
 
 ----------------------------------|------------------------------|
 ----------------------------------|------------------------------|
 ----------------------------------|------------------------------|
 --3-3-3-3-3-3-3-3-3-3-3-3-3-3-3-3-|--3-3-3-3-3-3-3-3-3-3-3---5---|

S S S S S S S S S S S S S S S S S S S S S S S S S S S S S S S S
 
 ----------------------------------|----------------------------------|
 ----------------------------------|----------------------------------|
 ----------------------------------|----------------------------------|
 --7-7-7-7-7-7-7-7-7-7-7-7-7-7-7-7-|--5-5-5-5-5-5-5-5-5-5-5-5-5-5-5-5-|

S S S S S S S S S S S S S S S S S S S S S S S S S S E. E.
 
 ----------------------------------|------------------------------|
 ----------------------------------|------------------------------|
 ----------------------------------|------------------------------|
 --3-3-3-3-3-3-3-3-3-3-3-3-3-3-3-3-|--3-3-3-3-3-3-3-3-3-3-3---5---|

S S S S S S S S S S S S S S S S S S S S S S S S S S S S S S S S
 
 ----------------------------------|----------------------------------|
 ----------------------------------|----------------------------------|
 ----------------------------------|----------------------------------|
 --7-7-7-7-7-7-7-7-7-7-7-7-7-7-7-7-|--5-5-5-5-5-5-5-5-5-5-5-5-5-5-5-5-|

S S S S S S S S S S S S S S S S S S S S S S S S S S E. E.
 
 ----------------------------------|------------------------------|
 ----------------------------------|------------------------------|
 ----------------------------------|------------------------------|
 --3-3-3-3-3-3-3-3-3-3-3-3-3-3-3-3-|--3-3-3-3-3-3-3-3-3-3-3---5---|

S S S S S S S S S S S S S S S S S S S S S S S S S S S S S S S S
 
 ----------------------------------|----------------------------------|
 ----------------------------------|----------------------------------|
 ----------------------------------|----------------------------------|
 --7-7-7-7-7-7-7-7-7-7-7-7-7-7-7-7-|--5-5-5-5-5-5-5-5-5-5-5-5-5-5-5-5-|

S S S S S S S S S S S S S S S S S S S S S S S S S S E. E.
 
 ----------------------------------|------------------------------|
 ----------------------------------|------------------------------|
 ----------------------------------|------------------------------|
 --3-3-3-3-3-3-3-3-3-3-3-3-3-3-3-3-|--3-3-3-3-3-3-3-3-3-3-3---5---|

S S S S S S S S S S S S S S S S S S S S S S S S S S S S S S S S
 
 ----------------------------------|----------------------------------|
 ----------------------------------|----------------------------------|
 --5-5-5-5-5-5-5-5-5-5-5-5-5-5-5-5-|--0-0-0-0-0-0-0-0-0-0-0-0-0-0-0-0-|
 ----------------------------------|----------------------------------|

S S S S S S S S S S S S S S S S S S S S S S S S S S S S S S S S
 
 ----------------------------------|----------------------------------|
 ----------------------------------|----------------------------------|
 ----------------------------------|--2-2-2-2-2-2-2-2-2-2-2-2-2-2-2-2-|
 --0-0-0-0-0-0-0-0-0-0-0-0-0-0-0-0-|----------------------------------|

S S S S S S S S S S S S S S S S S S S S S S S S S S S S S S S S
 
 ----------------------------------|----------------------------------|
 ----------------------------------|----------------------------------|
 --5-5-5-5-5-5-5-5-5-5-5-5-5-5-5-5-|--0-0-0-0-0-0-0-0-0-0-0-0-0-0-0-0-|
 ----------------------------------|----------------------------------|

S S S S S S S S S S S S S S S S S S S S S S S S S S S S S S S S
 
 ----------------------------------|----------------------------------|
 ----------------------------------|----------------------------------|
 ----------------------------------|--2-2-2-2-2-2-2-2-2-2-2-2-2-2-2-2-|
 --0-0-0-0-0-0-0-0-0-0-0-0-0-0-0-0-|----------------------------------|

S S S S S S S S S S S S S S S S S S S S S S S S S S S S S S S S
 
 ----------------------------------|----------------------------------|
 ----------------------------------|----------------------------------|
 --5-5-5-5-5-5-5-5-5-5-5-5-5-5-5-5-|--0-0-0-0-0-0-0-0-0-0-0-0-0-0-0-0-|
 ----------------------------------|----------------------------------|

S S S S S S S S S S S S S S S S S S S S S S S S S S S S S S S S
 
 ----------------------------------|----------------------------------|
 ----------------------------------|----------------------------------|
 ----------------------------------|--2-2-2-2-2-2-2-2-2-2-2-2-2-2-2-2-|
 --0-0-0-0-0-0-0-0-0-0-0-0-0-0-0-0-|----------------------------------|

S S S S S S S S S S S S S S S S S S S S S S S S S S S S S S S S
 
 ----------------------------------|----------------------------------|
 ----------------------------------|----------------------------------|
 --5-5-5-5-5-5-5-5-5-5-5-5-5-5-5-5-|--0-0-0-0-0-0-0-0-0-0-0-0-0-0-0-0-|
 ----------------------------------|----------------------------------|

S S S S S S S S S S S S S S S S S S S S S S S S S S S S S S S S
 
 ----------------------------------|----------------------------------|
 ----------------------------------|----------------------------------|
 ----------------------------------|--2-2-2-2-2-2-2-2-2-2-2-2-2-2-2-2-|
 --0-0-0-0-0-0-0-0-0-0-0-0-0-0-0-0-|----------------------------------|

E H E. E. E H E. E. E H E. E.
 
 ----------------------|----------------------|----------------------|
 ----------------------|----------------------|----------------------|
 --2-----------2---0---|--2-----------5---3---|--2-----------3---2---|
 ----------------------|----------------------|----------------------|

H H E H E. E. E H E. E.
 
 --------------------|----------------------|----------------------|
 --------------------|----------------------|----------------------|
 --0--------2--------|--2-----------2---0---|--2-----------5---3---|
 --------------------|----------------------|----------------------|

E E E E E E E E E E E E E E E E E H E. E.
 
 --------------------------|--------------------------|----------------------|
 --------------------------|--------------------------|----------------------|
 --0-----------------------|--2-----------3-----------|--5-----------5---3---|
 --------------------------|--------------------------|----------------------|

[B]  
 
 -----------||
 -----------||
 --2--------||
 -----------||

Duration Legend
 
 ---------------

W - whole
H - half
Q - quarter
E - 8th
S - 16th
T - 32nd
X - 64th
. - note dotted
|-n-| - n-tuplets
Tablature Legend
 
 ----------------

L - tied note
x - dead note
g - grace note
(n) - ghost note
> - accentuded note
NH - natural harmonic
AH - artificial harmonic
TH - tapped harmonic
SH - semi harmonic
PH - pitch harmonic
h - hammer on
p - pull off
b - bend
br - bendRelease
pb - preBend
pbr - preBendRelease
brb - bendReleaseBend
\n/ - tremolo bar dip
\n - tremolo bar dive
-/n - tremolo bar Release up
/n\ - tremolo bar inverted dip
/n - tremolo bar return
-\n - tremolo bar Release down
S - shift slide
s - legato slide
/ - slide into from below or out of upwards
\ - slide into from above or out of downwards
~ - vibrato
W - wide vibrato
tr - trill
TP - tremolo picking
T - tapping
S - slap
P - pop
< - fade in
^ - brush up
v - brush down

Important: The song above is NOT stored on the Chordie server. The original song is hosted at www.guitartabs.cc. Chordie works as a search engine and provides on-the-fly formatting. Chordie does not index songs against artists'/composers' will. To remove this song please click here.

Text color:
Chord color:
Chord grids: 
Font size:    
Page size: 

B E
Rate #1 of 1 versions

Login - add to songbook

SHARE PAGE  




You need to log in to post comments