Guitar Tabs, Chords and Lyrics
Update 25:10. 13:00. Site is back up running again. Songbooks are recovered. Woring on getting search back up..


Legacy of Kings  HammerFall

Legacy Of Kings
Transcribed by an unregistered user
HammerFall
Magnus RosÚn (D# G# C# F#)
W W W
 
 F#||-------------------|-------------------|-------------------|
 C#||-------------------|-------------------|-------------------|
 G#||-------------------|-------------------|-------------------|
 D#||-------------------|-------------------|-------------------|

H E Q. E Q E H E E E E E E E E
 
 ---------------------|----------------------|--------------------------|
 ---------------------|----------------------|--5--3--2-----3--2--------|
 -----------0--1------|--5-------5-----------|-----------5--------5--3--|
 ---------------------|----------------------|--------------------------|

E Q E H E E E E E Q. E E E E E E E E
 
 ----------------------|------------------------|--------------------------|
 ----------------------|--5--3--2---------------|--------------------------|
 --1-------1-----------|-----------5--0--1------|--5--5--5--5--5--5--5--5--|
 ----------------------|------------------------|--------------------------|

[E] [E] [E] [E] [E] [E] [E] [E] [E] [E] [E] [E] [E] [E] [E] [E]  
 
 --------------------------|--------------------------|
 --5--3--2-----3--2--------|--------------------------|
 -----------5--------5--3--|--5--5--5--5--5--5--5--5--|
 --------------------------|--------------------------|

E E E E E E E E E E E E E E E E E E E E E Q.
 
 --------------------------|--------------------------|------------------------|
 --5--3--2-----3--2--------|--------------------------|------------------------|
 -----------5--------5--3--|--1--1--1--1--1--1--1--1--|--------------0--1------|
 --------------------------|--------------------------|--3--3--3--3------------|

[E] [E] [E] [E] [E] [E] [E] [E] [E] [E] [E] [E] [E] [E] [E] [E]  
 
 --------------------------|--------------------------|
 --------------------------|--5--3--2-----3--2--------|
 --5--5--5--5--5--5--5--5--|-----------5--------5--3--|
 --------------------------|--------------------------|

[E] [E] [E] [E] [E] [E] [E] [E] [E] [E] [E] [E] [E] [E] [E] [E]  
 
 --------------------------|--------------------------|
 --------------------------|--5--3--2-----3--2--------|
 --5--5--5--5--5--5--5--5--|-----------5--------5--3--|
 --------------------------|--------------------------|

E E E E E E E E E E E E E Q. E E E E E E E E
 
 --------------------------|------------------------|--------------------------|
 --------------------------|------------------------|--4--------4--------4-----|
 --1--1--1--1--1--1--1--1--|--------------0--1------|-----2--2-----2--2-----2--|
 --------------------------|--3--3--3--3------------|--------------------------|

E E E E E E E E E E E E E E E E E E E Q E E E
 
 --------------------------|--------------------------|-------------------------|
 --4--------4--------4-----|--------------------------|----------------2--------|
 -----0--0-----0--0-----0--|--5--------4-----5--------|-------------------5--4--|
 --------------------------|-----3--3-----3-----3--0--|--0--2--3--2-------------|

[E] [E] [E] [E] [E] [E] [E] [E] [E] [E] [E] [E] [E] [E] [E] [E]  
 
 --------------------------|--------------------------|
 --4--------4--------4-----|--4--------4--------4-----|
 -----2--2-----2--2-----2--|-----0--0-----0--0-----0--|
 --------------------------|--------------------------|

[E] [E] [E] [E] [E] [E] [E] [E] [E] [E] [E] [E] [E] [E] [E] [E]  
 
 --------------------------|--------------------------|
 --------------------------|--------------------------|
 --5--------4-----5--------|--------------------------|
 -----3--3-----3-----3--3--|--3--3--3--2--2--2--3--3--|

[E] [E] [E] [E] [E] [E] [E] [E] [E] [E] [E] [E] [E] [E] [E] [E]  
 
 --------------------------|--------------------------|
 --2--2--2-----------------|--------------------------|
 -----------5--5--5--4--4--|--5--5--5--5--5--5--5--5--|
 --------------------------|--------------------------|

[E] [E] [E] [E] [E] [E] [E] [E] [E] [E] [E] [E] [E] [E] [E] [E]  
 
 --------------------------|--------------------------|
 --------------------------|--------------------------|
 --5--5--5--5--5--5--3--3--|--1--1--1--1--1--1--1--1--|
 --------------------------|--------------------------|

[E] [E] [E] [E] [E] [E] [E] [E] [E] [E] [E] [E] [E] [E] [E] [E]  
 
 --------------------------|--------------------------|
 --------------------------|--------------------------|
 --3--3--3--3--0--0--0--0--|--5--5--5--5--5--5--5--5--|
 --------------------------|--------------------------|

[E] [E] [E] [E] [E] [E] [E] [E] [E] [E] [E] [E] [E] [E] [E] [E]  
 
 --------------------------|--------------------------|
 --------------------------|--------------------------|
 --5--5--5--5--5--5--3--3--|--1--1--1--1--1--1--1--1--|
 --------------------------|--------------------------|

[E] [E] [E] [E] [E] [E] [E] [E] [E] [E] [E] [E] [E] [E] [E] [E]  
 
 --------------------------|--------------------------|
 --------------------------|--------------------------|
 --------------0--0--0--0--|--5--5--5--5--5--5--5--5--|
 --3--3--3--3--------------|--------------------------|

E E E E E E E E E E E E E E E E E E E E E Q.
 
 --------------------------|--------------------------|------------------------|
 --5--3--2-----3--2--------|--------------------------|--5--3--2---------------|
 -----------5--------5--3--|--1--1--1--1--1--1--1--1--|-----------5--0--1------|
 --------------------------|--------------------------|------------------------|

[E] [E] [E] [E] [E] [E] [E] [E] [E] [E] [E] [E] [E] [E] [E] [E]  
 
 --------------------------|--------------------------|
 --------------------------|--5--3--2-----3--2--------|
 --5--5--5--5--5--5--5--5--|-----------5--------5--3--|
 --------------------------|--------------------------|

E E E E E E E E E E E E E Q. E E E E E E E E
 
 --------------------------|------------------------|--------------------------|
 --------------------------|--5--3--2---------------|--------------------------|
 --1--1--1--1--1--1--1--1--|-----------5--0--1------|--5--5--5--5--5--5--5--5--|
 --------------------------|------------------------|--------------------------|

[E] [E] [E] [E] [E] [E] [E] [E] [E] [E] [E] [E] [E] [E] [E] [E]  
 
 --------------------------|--------------------------|
 --5--3--2-----3--2--------|--------------------------|
 -----------5--------5--3--|--5--5--5--5--5--5--5--5--|
 --------------------------|--------------------------|

E E E E E E E E E E E E E E E E E E E E E Q.
 
 --------------------------|--------------------------|------------------------|
 --5--3--2-----3--2--------|--------------------------|------------------------|
 -----------5--------5--3--|--1--1--1--1--1--1--1--1--|--------------0--1------|
 --------------------------|--------------------------|--3--3--3--3------------|

[E] [E] [E] [E] [E] [E] [E] [E] [E] [E] [E] [E] [E] [E] [E] [E]  
 
 --------------------------|--------------------------|
 --------------------------|--5--3--2-----3--2--------|
 --5--5--5--5--5--5--5--5--|-----------5--------5--3--|
 --------------------------|--------------------------|

[E] [E] [E] [E] [E] [E] [E] [E] [E] [E] [E] [E] [E] [E] [E] [E]  
 
 --------------------------|--------------------------|
 --------------------------|--5--3--2-----3--2--------|
 --5--5--5--5--5--5--5--5--|-----------5--------5--3--|
 --------------------------|--------------------------|

E E E E E E E E E E E E E Q. E E E E E E E E
 
 --------------------------|------------------------|--------------------------|
 --------------------------|------------------------|--4--------4--------4-----|
 --1--1--1--1--1--1--1--1--|--------------0--1------|-----2--2-----2--2-----2--|
 --------------------------|--3--3--3--3------------|--------------------------|

E E E E E E E E E E E E E E E E E E E Q E E E
 
 --------------------------|--------------------------|-------------------------|
 --4--------4--------4-----|--------------------------|----------------2--------|
 -----0--0-----0--0-----0--|--5--------4-----5--------|-------------------5--4--|
 --------------------------|-----3--3-----3-----3--0--|--0--2--3--2-------------|

[E] [E] [E] [E] [E] [E] [E] [E] [E] [E] [E] [E] [E] [E] [E] [E]  
 
 --------------------------|--------------------------|
 --4--------4--------4-----|--4--------4--------4-----|
 -----2--2-----2--2-----2--|-----0--0-----0--0-----0--|
 --------------------------|--------------------------|

[E] [E] [E] [E] [E] [E] [E] [E] [E] [E] [E] [E] [E] [E] [E] [E]  
 
 --------------------------|--------------------------|
 --------------------------|--------------------------|
 --5--------4-----5--------|--------------------------|
 -----3--3-----3-----3--3--|--3--3--3--2--2--2--3--3--|

[E] [E] [E] [E] [E] [E] [E] [E] [E] [E] [E] [E] [E] [E] [E] [E]  
 
 --------------------------|--------------------------|
 --2--2--2-----------------|--------------------------|
 -----------5--5--5--4--4--|--5--5--5--5--5--5--5--5--|
 --------------------------|--------------------------|

[E] [E] [E] [E] [E] [E] [E] [E] [E] [E] [E] [E] [E] [E] [E] [E]  
 
 --------------------------|--------------------------|
 --------------------------|--------------------------|
 --5--5--5--5--5--5--3--3--|--1--1--1--1--1--1--1--1--|
 --------------------------|--------------------------|

[E] [E] [E] [E] [E] [E] [E] [E] [E] [E] [E] [E] [E] [E] [E] [E]  
 
 --------------------------|--------------------------|
 --------------------------|--------------------------|
 --3--3--3--3--0--0--0--0--|--5--5--5--5--5--5--5--5--|
 --------------------------|--------------------------|

[E] [E] [E] [E] [E] [E] [E] [E] [E] [E] [E] [E] [E] [E] [E] [E]  
 
 --------------------------|--------------------------|
 --------------------------|--------------------------|
 --5--5--5--5--5--5--3--3--|--1--1--1--1--1--1--1--1--|
 --------------------------|--------------------------|

[E] [E] [E] [E] [E] [E] [E] [E] [E] [E] [E] [E] [E] [E] [E] [E]  
 
 --------------------------|--------------------------|
 --------------------------|--------------------------|
 --------------0--0--0--0--|--5--5--5--5--5--5--5--5--|
 --3--3--3--3--------------|--------------------------|

[E] [E] [E] [E] [E] [E] [E] [E] [E] [E] [E] [E] [E] [E] [E] [E]  
 
 --------------------------|--------------------------|
 --------------------------|--------------------------|
 --5--5--5--5--5--5--3--3--|--1--1--1--1--1--1--1--1--|
 --------------------------|--------------------------|

[E] [E] [E] [E] [E] [E] [E] [E] [E] [E] [E] [E] [E] [E] [E] [E]  
 
 --------------------------|--------------------------|
 --------------------------|--------------------------|
 --3--3--3--3--0--0--0--0--|--5--5--5--5--5--5--5--5--|
 --------------------------|--------------------------|

[E] [E] [E] [E] [E] [E] [E] [E] [E] [E] [E] [E] [E] [E] [E] [E]  
 
 --------------------------|--------------------------|
 --------------------------|--------------------------|
 --5--5--5--5--5--5--3--3--|--1--1--1--1--1--1--1--1--|
 --------------------------|--------------------------|

E E E E E E E E E Q. H E Q. E E E E
 
 --------------------------|---------------------|------------------------|
 --------------------------|---------------------|---------------5--4-----|
 --------------0--0--0--0--|---------------------|------------5--------5--|
 --3--3--3--3--------------|--0------------------|--0---------------------|

E Q. H E Q. E E E E E E E E E E E E
 
 ---------------------|------------------------|--------------------------|
 ---------------------|---------------2--4--5--|--------------------------|
 ---------------------|------------5-----------|--------------------------|
 --0------------------|--0---------------------|--0--0--0--0--0--0--0--0--|

[E] [E] [E] [E] [E] [E] [E] [E] [E] [E] [E] [E] [E] [E] [E] [E]  
 
 --------------------------|--------------------------|
 -----------------5--4-----|--------------------------|
 --------------5--------5--|--3--3--3--3--3--3--3--3--|
 --0--0--0--0--------------|--------------------------|

[E] [E] [E] [E] [E] [E] [E] [E] [E] [E] [E] [E] [E] [E] [E] [E]  
 
 --------------------------|--------------------------|
 --------------------------|--------------------------|
 --------------------------|--------------------------|
 --5--5--5--5--3--3--5--5--|--0--0--0--0--0--0--0--0--|

[E] [E] [E] [E] [E] [E] [E] [E] [E] [E] [E] [E] [E] [E] [E] [E]  
 
 --------------------------|--------------------------|
 -----------------5--4-----|--------------------------|
 --------------5--------5--|--------------------------|
 --0--0--0--0--------------|--0--0--0--0--0--0--0--0--|

[E] [E] [E] [E] [E] [E] [E] [E] [E] [E] [E] [E] [E] [E] [E] [E]  
 
 --------------------------|--------------------------|
 -----------------2--4--5--|--------------------------|
 --------------5-----------|--------------------------|
 --0--0--0--0--------------|--0--0--0--0--0--0--0--0--|

[E] [E] [E] [E] [E] [E] [E] [E] [E] [E] [E] [E] [E] [E] [E] [E]  
 
 --------------------------|--------------------------|
 -----------------5--4-----|--------------------------|
 --------------5--------5--|--3--3--3--3--3--3--3--3--|
 --0--0--0--0--------------|--------------------------|

[E] [E] [E] [E] [E] [E] [E] [E] [E] [E] [E] [E] [E] [E] [E] [E]  
 
 --------------------------|--------------------------|
 --------------------------|--------------------------|
 --------------------------|--2--2--2--2--2--2--4--5--|
 --5--5--5--5--3--3--3--3--|--------------------------|

[E] [E] [E] [E] [E] [E] [E] [E] [E] [E] [E] [E] [E] [E] [E] [E]  
 
 --------------------------|--------------------------|
 --2--2--2--2--2--2--2--2--|--------------------------|
 --------------------------|--0--0--0--0--0--0--0--0--|
 --------------------------|--------------------------|

[E] [E] [E] [E] [E] [E] [E] [E] [E] [E] [E] [E] [E] [E] [E] [E]  
 
 --------------------------|--------------------------|
 --------------------------|--------------------------|
 --5--5--5--5--4--4--4--4--|--2--2--2--2--2--2--4--5--|
 --------------------------|--------------------------|

[E] [E] [E] [E] [E] [E] [E] [E] [E] [E] [E] [E] [E] [E] [E] [E]  
 
 --------------------------|--------------------------|
 --2--2--2--2--2--2--2--2--|--------------------------|
 --------------------------|--0--0--0--0--0--0--0--0--|
 --------------------------|--------------------------|

[E] [E] [E] [E] [E] [E] [E] [E] [E] [E] [E] [E] [E] [E] [E] [E]  
 
 --------------------------|--------------------------|
 --------------------------|--2--2--2--2--2--2-----2--|
 --5--5--5--5--4--4--4--4--|--------------------0-----|
 --------------------------|--------------------------|

[E] [E] [E] [E] [E] [E] [E] [E] [E] [E] [E] [E] [E] [E] [E] [E]  
 
 --------------------------|--------------------------|
 --2--2--2--2--------------|--2--2--2--2--2--2-----2--|
 --------------5--5--5--5--|--------------------0-----|
 --------------------------|--------------------------|

[E] [E] [E] [E] [E] [E] [E] [E] [E] [E] [E] [E] [E] [E] [E] [E]  
 
 --------------------------|--------------------------|
 --2--2--2--2--5--5--------|--2--2--2--2--2--2-----2--|
 --------------------5--5--|--------------------0-----|
 --------------------------|--------------------------|

[E] [E] [E] [E] [E] [E] [E] [E] [E] [E] [E] [E] [E] [E] [E] [E]  
 
 --------------------------|--------------------------|
 --2--2--2--2--------------|--------------------------|
 --------------5--5--5--5--|--3--3--3--3--3--3--3--3--|
 --------------------------|--------------------------|

E E E E E E E E Q H. E E E E E E E E
 
 --------------------------|--------------------|--------------------------|
 --------------------------|--------------------|--------------------------|
 --------------------------|--5-----------------|--5--5--5--5--5--5--3--3--|
 --5--5--5--5--3--3--3--3--|--------------------|--------------------------|

E E E E E E E E E E E E E E E E Q H.
 
 --------------------------|--------------------------|--------------------|
 --------------------------|--------------------------|--------------------|
 --1--1--1--1--1--1--1--1--|--3--3--3--3--0--0--0--0--|--5-----------------|
 --------------------------|--------------------------|--------------------|

[E] [E] [E] [E] [E] [E] [E] [E] [E] [E] [E] [E] [E] [E] [E] [E]  
 
 --------------------------|--------------------------|
 --------------------------|--------------------------|
 --5--5--5--5--5--5--3--3--|--1--1--1--1--1--1--1--1--|
 --------------------------|--------------------------|

[E] [E] [E] [E] [E] [E] [E] [E] [E] [E] [E] [E] [E] [E] [E] [E]  
 
 --------------------------|--------------------------|
 --------------------------|--3--3--3--3--3--3--3--3--|
 --------------0--0--0--0--|--------------------------|
 --3--3--3--3--------------|--------------------------|

[E] [E] [E] [E] [E] [E] [E] [E] [E] [E] [E] [E] [E] [E] [E] [E]  
 
 --------------------------|--------------------------|
 --3--3--3--3--3--3--1--1--|--------------------------|
 --------------------------|--4--4--4--4--4--4--4--4--|
 --------------------------|--------------------------|

[E] [E] [E] [E] [E] [E] [E] [E] [E] [E] [E] [E] [E] [E] [E] [E]  
 
 --------------------------|--------------------------|
 --1--1--1--1--------------|--3--3--3--3--3--3--3--3--|
 --------------3--3--3--3--|--------------------------|
 --------------------------|--------------------------|

[E] [E] [E] [E] [E] [E] [E] [E] [E] [E] [E] [E] [E] [E] [E] [E]  
 
 --------------------------|--------------------------|
 --3--3--3--3--3--3--1--1--|--------------------------|
 --------------------------|--4--4--4--4--4--4--4--4--|
 --------------------------|--------------------------|

[E] [E] [E] [E] [E] [E] [E] [E] [E] [E] [E] [E] [E] [E] [E] [E]  
 
 --------------------------|--------------------------|
 --------------------------|--------------------------|
 --1--1--1--1--3--3--3--3--|--5--5--5--5--5--5--5--5--|
 --------------------------|--------------------------|

E E E E E E E E E E E E E E E E E E E E E Q.
 
 --------------------------|--------------------------|------------------------|
 --5--3--2-----3--2--------|--------------------------|--5--3--2---------------|
 -----------5--------5--3--|--1--1--1--1--1--1--1--1--|-----------5--0--1------|
 --------------------------|--------------------------|------------------------|

[E] [E] [E] [E] [E] [E] [E] [E] [E] [E] [E] [E] [E] [E] [E] [E]  
 
 --------------------------|--------------------------|
 --------------------------|--5--3--2-----3--2--------|
 --5--5--5--5--5--5--5--5--|-----------5--------5--3--|
 --------------------------|--------------------------|

E E E E E E E E E E E E E Q. E E E E E E E E
 
 --------------------------|------------------------|--------------------------|
 --------------------------|--5--3--2---------------|--------------------------|
 --1--1--1--1--1--1--1--1--|-----------5--0--1------|--5--5--5--5--1--1--3--3--|
 --------------------------|------------------------|--------------------------|

E E E E E Q. W
 
 ------------------------|-------------------||
 ------------------------|-------------------||
 --5--5--5--3--5---------|-------------------||
 ------------------------|-------------------||

Duration Legend
 
 ---------------

W - whole
H - half
Q - quarter
E - 8th
S - 16th
T - 32nd
X - 64th
. - note dotted
|-n-| - n-tuplets
Tablature Legend
 
 ----------------

L - tied note
x - dead note
g - grace note
(n) - ghost note
> - accentuded note
NH - natural harmonic
AH - artificial harmonic
TH - tapped harmonic
SH - semi harmonic
PH - pitch harmonic
h - hammer on
p - pull off
b - bend
br - bendRelease
pb - preBend
pbr - preBendRelease
brb - bendReleaseBend
\n/ - tremolo bar dip
\n - tremolo bar dive
-/n - tremolo bar Release up
/n\ - tremolo bar inverted dip
/n - tremolo bar return
-\n - tremolo bar Release down
S - shift slide
s - legato slide
/ - slide into from below or out of upwards
\ - slide into from above or out of downwards
~ - vibrato
W - wide vibrato
tr - trill
TP - tremolo picking
T - tapping
S - slap
P - pop
< - fade in
^ - brush up
v - brush down

Important: The song above is NOT stored on the Chordie server. The original song is hosted at www.guitartabs.cc. Chordie works as a search engine and provides on-the-fly formatting. Chordie does not index songs against artists'/composers' will. To remove this song please click here.

Text color:
Chord color:
Chord grids: 
Font size:    
Page size: 

E
Rate #1 of 1 versions

Login - add to songbook

SHARE PAGE  




You need to log in to post comments