Guitar Tabs, Chords and Lyrics
Update 25:10. 13:00. Site is back up running again. Songbooks are recovered. Woring on getting search back up..


Secrets  HammerFall

Secrets
Transcribed by TRigger__87
HammerFall
Magnus RosÚn (D# G# C# F#)
W W W
 
 F#||-------------------|-------------------|-------------------|
 C#||-------------------|-------------------|-------------------|
 G#||-------------------|-------------------|-------------------|
 D#||-------------------|-------------------|-------------------|

W W W W
 
 -------------------|-------------------|-------------------|-------------------|
 -------------------|-------------------|-------------------|-------------------|
 -------------------|-------------------|-------------------|-------------------|
 -------------------|-------------------|-------------------|-------------------|

W W W W
 
 -------------------|-------------------|-------------------|-------------------|
 -------------------|-------------------|-------------------|-------------------|
 -------------------|-------------------|-------------------|-------------------|
 -------------------|-------------------|-------------------|-------------------|

W W W W
 
 -------------------|-------------------|-------------------|-------------------|
 -------------------|-------------------|-------------------|-------------------|
 -------------------|-------------------|-------------------|-------------------|
 -------------------|-------------------|-------------------|-------------------|

W W W W
 
 -------------------|-------------------|-------------------|-------------------|
 -------------------|-------------------|-------------------|-------------------|
 -------------------|-------------------|-------------------|-------------------|
 -------------------|-------------------|-------------------|-------------------|

W W W W
 
 -------------------|-------------------|-------------------|-------------------|
 -------------------|-------------------|-------------------|-------------------|
 -------------------|-------------------|-------------------|-------------------|
 -------------------|-------------------|-------------------|-------------------|

W W W H Q
 
 -------------------|-------------------|-------------------|----------------|
 -------------------|-------------------|-------------------|----------------|
 -------------------|-------------------|--5----------------|----------------|
 -------------------|-------------------|-------------------|----------------|

E S S S S E S S S S E E E S S S S E S S S S E E
 
 ------------------------------|------------------------------|
 ------------------------------|------------------------------|
 ------------------------3--0--|------------------------3--0--|
 --0--0-0-0-0-0--0-0-0-0-------|--0--0-0-0-0-0--0-0-0-0-------|

E S S S S E S S S S E E E S S S S S S S S S S Q
 
 ------------------------------|--------------------------------|
 ------------------------------|------------------------7-10----|
 --6--6-6-6-6-6--6-6-6-6-3--0--|--7--7-7-7-7-7-7-7-9-10---------|
 ------------------------------|--------------------------------|

E S S S S E S S S S E E E S S S S E S S S S E E
 
 ------------------------------|------------------------------|
 ------------------------------|------------------------------|
 ------------------------3--0--|------------------------3--0--|
 --0--0-0-0-0-0--0-0-0-0-------|--0--0-0-0-0-0--0-0-0-0-------|

E S S S S E S S S S E E W
 
 ------------------------------|-------------------|
 ------------------------------|-------------------|
 --6--6-6-6-6-6--6-6-6-6-3--0--|--7----------------|
 ------------------------------|-------------------|

E S S S S E S S S S E E E S S S S E S S S S E E
 
 ------------------------------|------------------------------|
 ------------------------------|------------------------------|
 ------------------------3--0--|------------------------3--0--|
 --0--0-0-0-0-0--0-0-0-0-------|--0--0-0-0-0-0--0-0-0-0-------|

E S S S S E S S S S E E E S S S S S S S S S S Q
 
 ------------------------------|--------------------------------|
 ------------------------------|------------------------7-10----|
 --6--6-6-6-6-6--6-6-6-6-3--0--|--7--7-7-7-7-7-7-7-9-10---------|
 ------------------------------|--------------------------------|

E S S S S E S S S S E E E S S S S E S S S S E E
 
 ------------------------------|------------------------------|
 ------------------------------|------------------------------|
 ------------------------3--0--|------------------------3--0--|
 --0--0-0-0-0-0--0-0-0-0-------|--0--0-0-0-0-0--0-0-0-0-------|

E S S S S E S S S S E E H S S E S S E Q H.
 
 ------------------------------|---------------------------|--------------------|
 ------------------------------|-----------10-9-7----------|--------------------|
 --6--6-6-6-6-6--6-6-6-6-3--0--|--7----------------10-9-7--|--2-----------------|
 ------------------------------|---------------------------|--------------------|

Q H. Q E H E Q Q S S S S S S S S
 
 --------------------|----------------------|----------------------------|
 --------------------|----------------------|----------------------------|
 --2-----------------|--2----2--------------|--2---------3-3-3-3-5-5-5-5-|
 --------------------|----------------------|----------------------------|

S S S S S S S S S S S S S S S S S S S S S S S S S S S S S S S S
 
 ----------------------------------|----------------------------------|
 ----------------------------------|----------------------------------|
 ----------------------------------|--2-2-2-2-2-2-2-2-2-2-2-2-2-2-2-2-|
 --2-2-2-2-2-2-2-2-2-2-2-2-2-2-2-2-|----------------------------------|

S S S S S S S S S S S S S S S S S S S S S S S S S S S S S S S S
 
 ----------------------------------|----------------------------------|
 ----------------------------------|----------------------------------|
 ----------------------------------|--2-2-2-2-2-2-2-2-2-2-2-2-2-2-2-2-|
 --0-0-0-0-0-0-0-0-0-0-0-0-0-0-0-0-|----------------------------------|

S S S S S S S S S S S S S S S S S S S S S S S S S S S S S S S S
 
 ----------------------------------|----------------------------------|
 ----------------------------------|----------------------------------|
 ----------------------------------|--5-5-5-5-5-5-5-5-5-5-5-5-5-5-5-5-|
 --3-3-3-3-3-3-3-3-3-3-3-3-3-3-3-3-|----------------------------------|

S S S S S S S S S S S S S S S S S S S S S S S S S S S S S S S S
 
 ----------------------------------|----------------------------------|
 ----------------------------------|----------------------------------|
 ----------------------------------|----------------------------------|
 --5-5-5-5-5-5-5-5-5-5-5-5-5-5-5-5-|--5-5-5-5-5-5-5-5-5-5-5-5-5-5-5-5-|

S S S S S S S S S S S S S S S S S S S S S S S S S S S S S S S S
 
 ----------------------------------|----------------------------------|
 ----------------------------------|----------------------------------|
 ----------------------------------|--2-2-2-2-2-2-2-2-2-2-2-2-2-2-2-2-|
 --2-2-2-2-2-2-2-2-2-2-2-2-2-2-2-2-|----------------------------------|

S S S S S S S S S S S S S S S S S S S S S S S S S S S S S S S S
 
 ----------------------------------|----------------------------------|
 ----------------------------------|----------------------------------|
 ----------------------------------|--2-2-2-2-2-2-2-2-2-2-2-2-2-2-2-2-|
 --0-0-0-0-0-0-0-0-0-0-0-0-0-0-0-0-|----------------------------------|

S S S S S S S S S S S S S S S S S S S S S S S S S S S S S S S S
 
 ----------------------------------|----------------------------------|
 ----------------------------------|----------------------------------|
 ----------------------------------|--5-5-5-5-5-5-5-5-5-5-5-5-5-5-5-5-|
 --3-3-3-3-3-3-3-3-3-3-3-3-3-3-3-3-|----------------------------------|

W W W W
 
 -------------------|-------------------|-------------------|-------------------|
 -------------------|-------------------|-------------------|-------------------|
 --4----------------|--L----------------|-------------------|-------------------|
 -------------------|-------------------|-------------------|-------------------|

W H S S S S S E. E S S S S E S S S S E E
 
 -------------------|----------------------------|------------------------------|
 -------------------|------------------7-10--L---|------------------------------|
 -------------------|-----------7-9-10-----------|------------------------3--0--|
 -------------------|----------------------------|--0--0-0-0-0-0--0-0-0-0-------|

E S S S S E S S S S E E E S S S S E S S S S E E
 
 ------------------------------|------------------------------|
 ------------------------------|------------------------------|
 ------------------------3--0--|--6--6-6-6-6-6--6-6-6-6-3--0--|
 --0--0-0-0-0-0--0-0-0-0-------|------------------------------|

E S S S S S S S S S S Q E S S S S E S S S S E E
 
 --------------------------------|------------------------------|
 ------------------------7-10----|------------------------------|
 --7--7-7-7-7-7-7-7-9-10---------|------------------------3--0--|
 --------------------------------|--0--0-0-0-0-0--0-0-0-0-------|

E S S S S E S S S S E E E S S S S E S S S S E E
 
 ------------------------------|------------------------------|
 ------------------------------|------------------------------|
 ------------------------3--0--|--6--6-6-6-6-6--6-6-6-6-3--0--|
 --0--0-0-0-0-0--0-0-0-0-------|------------------------------|

H S S E S S E Q H. Q H.
 
 ---------------------------|--------------------|--------------------|
 -----------10-9-7----------|--------------------|--------------------|
 --7----------------10-9-7--|--2-----------------|--2-----------------|
 ---------------------------|--------------------|--------------------|

Q E H E Q Q S S S S S S S S
 
 ----------------------|----------------------------|
 ----------------------|----------------------------|
 --2----2--------------|--2-------------------------|
 ----------------------|------------2-2-2-2-5-5-5-5-|

S S S S S S S S S S S S S S S S S S S S S S S S S S S S S S S S
 
 ----------------------------------|----------------------------------|
 ----------------------------------|----------------------------------|
 ----------------------------------|--2-2-2-2-2-2-2-2-2-2-2-2-2-2-2-2-|
 --2-2-2-2-2-2-2-2-2-2-2-2-2-2-2-2-|----------------------------------|

S S S S S S S S S S S S S S S S S S S S S S S S S S S S S S S S
 
 ----------------------------------|----------------------------------|
 ----------------------------------|----------------------------------|
 ----------------------------------|--2-2-2-2-2-2-2-2-2-2-2-2-2-2-2-2-|
 --0-0-0-0-0-0-0-0-0-0-0-0-0-0-0-0-|----------------------------------|

S S S S S S S S S S S S S S S S S S S S S S S S S S S S S S S S
 
 ----------------------------------|----------------------------------|
 ----------------------------------|----------------------------------|
 ----------------------------------|--5-5-5-5-5-5-5-5-5-5-5-5-5-5-5-5-|
 --3-3-3-3-3-3-3-3-3-3-3-3-3-3-3-3-|----------------------------------|

S S S S S S S S S S S S S S S S S S S S S S S S S S S S S S S S
 
 ----------------------------------|----------------------------------|
 ----------------------------------|----------------------------------|
 ----------------------------------|----------------------------------|
 --5-5-5-5-5-5-5-5-5-5-5-5-5-5-5-5-|--5-5-5-5-5-5-5-5-5-5-5-5-5-5-5-5-|

S S S S S S S S S S S S S S S S S S S S S S S S S S S S S S S S
 
 ----------------------------------|----------------------------------|
 ----------------------------------|----------------------------------|
 ----------------------------------|--2-2-2-2-2-2-2-2-2-2-2-2-2-2-2-2-|
 --2-2-2-2-2-2-2-2-2-2-2-2-2-2-2-2-|----------------------------------|

S S S S S S S S S S S S S S S S S S S S S S S S S S S S S S S S
 
 ----------------------------------|----------------------------------|
 ----------------------------------|----------------------------------|
 ----------------------------------|--2-2-2-2-2-2-2-2-2-2-2-2-2-2-2-2-|
 --0-0-0-0-0-0-0-0-0-0-0-0-0-0-0-0-|----------------------------------|

S S S S S S S S S S S S S S S S S S S S S S S S S S S S S S S S
 
 ----------------------------------|----------------------------------|
 ----------------------------------|----------------------------------|
 ----------------------------------|--5-5-5-5-5-5-5-5-5-5-5-5-5-5-5-5-|
 --3-3-3-3-3-3-3-3-3-3-3-3-3-3-3-3-|----------------------------------|

W W W W
 
 -------------------|-------------------|-------------------|-------------------|
 -------------------|-------------------|-------------------|-------------------|
 --4----------------|--L----------------|-------------------|-------------------|
 -------------------|-------------------|-------------------|-------------------|

W W W W
 
 -------------------|-------------------|-------------------|-------------------|
 -------------------|-------------------|-------------------|-------------------|
 -------------------|-------------------|-------------------|-------------------|
 -------------------|-------------------|-------------------|-------------------|

W H Q S S S S S S S S S S S S S S S S
 
 -------------------|----------------|----------------------------------|
 -------------------|----------------|----------------------------------|
 -------------------|----------------|----------------------------------|
 -------------------|----------------|--0-0-0-0-0-0-0-0-0-0-0-0-0-0-0-0-|

S S S S S S S S S S S S S S S S S S S S S S S S S S S S S S S S
 
 ----------------------------------|----------------------------------|
 ----------------------------------|----------------------------------|
 ----------------------------------|--4-4-4-4-4-4-4-4-4-4-4-4-4-4-4-4-|
 --2-2-2-2-2-2-2-2-2-2-2-2-2-2-2-2-|----------------------------------|

S S S S S S S S S S S S S S S S S S S S S S S S S S S S S S S S
 
 ----------------------------------|----------------------------------|
 ----------------------------------|----------------------------------|
 ----------------------------------|----------------------------------|
 --2-2-2-2-2-2-2-2-2-2-2-2-2-2-2-2-|--0-0-0-0-0-0-0-0-0-0-0-0-0-0-0-0-|

S S S S S S S S S S S S S S S S E E E E E E E E
 
 ----------------------------------|--------------------------|
 ----------------------------------|--------------------------|
 ----------------------------------|--4--4--4--4--4--4--4--4--|
 --2-2-2-2-2-2-2-2-2-2-2-2-2-2-2-2-|--------------------------|

E E E E E E E E E E E E E E E E Q H.
 
 --------------------------|--------------------------|--------------------|
 --------------------------|--------------------------|--------------------|
 --------------------------|--5--5--5--5--5--5--5--5--|--9-----------------|
 --3--3--3--3--3--3--3--3--|--------------------------|--------------------|

Q H. Q E H E Q Q S S S S S S S S
 
 --------------------|----------------------|----------------------------|
 --------------------|----------------------|----------------------------|
 --2-----------------|--9----9--------------|--9-------------------------|
 --------------------|----------------------|------------2-2-2-2-5-5-5-5-|

[E] [E] [E] [E] [E] [E] [E] [E] [E] [E] [E] [E] [E] [E] [E] [E]  
 
 --------------------------|--------------------------|
 --------------------------|--------------------------|
 --4--4--4--4--4--4--4--4--|--4--4--4--4--4--4--4--4--|
 --------------------------|--------------------------|

[E] [E] [E] [E] [E] [E] [E] [E] [E] [E] [E] [E] [E] [E] [E] [E]  
 
 --------------------------|--------------------------|
 --------------------------|--------------------------|
 --5--5--5--5--5--5--5--5--|--2--2--2--2--2--2--2--2--|
 --------------------------|--------------------------|

[E] [E] [E] [E] [E] [E] [E] [E] [E] [E] [E] [E] [E] [E] [E] [E]  
 
 --------------------------|--------------------------|
 --------------------------|--------------------------|
 --4--4--4--4--4--4--4--4--|--------------------------|
 --------------------------|--2--2--2--2--2--2--2--2--|

E E E E E E E E E E E E E E E E Q H.
 
 --------------------------|--------------------------|--------------------|
 --------------------------|--------------------------|--------------------|
 --5--5--5--5--5--5--5--5--|--2--2--2--2--2--2--2--2--|--2-----------------|
 --------------------------|--------------------------|--------------------|

Q H. Q E H E Q S S S S S S S S S S S S
 
 --------------------|----------------------|-------------------------------|
 --------------------|----------------------|-------------------------------|
 --2-----------------|--2----2--------------|--2------------3-3-3-3-5-5-5-5-|
 --------------------|----------------------|-------------------------------|

S S S S S S S S S S S S S S S S S S S S S S S S S S S S S S S S
 
 ----------------------------------|----------------------------------|
 ----------------------------------|----------------------------------|
 ----------------------------------|--5-5-5-5-5-5-5-5-5-5-5-5-5-5-5-5-|
 --3-3-3-3-3-3-3-3-3-3-3-3-3-3-3-3-|----------------------------------|

S S S S S S S S S S S S S S S S S S S S S S S S S S S S S S S S
 
 ----------------------------------|----------------------------------|
 ----------------------------------|----------------------------------|
 ----------------------------------|--5-5-5-5-7-7-7-7-8-8-8-8-9-9-9-9-|
 --3-3-3-3-3-3-3-3-3-3-3-3-3-3-3-3-|----------------------------------|

S S S S S S S S S S S S S S S S S S S S S S S S S S S S S S S S
 
 ----------------------------------|----------------------------------|
 ----------------------------------|----------------------------------|
 ----------------------------------|--5-5-5-5-5-5-5-5-5-5-5-5-5-5-5-5-|
 --3-3-3-3-3-3-3-3-3-3-3-3-3-3-3-3-|----------------------------------|

S S S S S S S S S S S S S S S S S S S S S S S S S S S S S S S S
 
 ----------------------------------|----------------------------------|
 ----------------------------------|----------------------------------|
 ----------------------------------|--5-5-5-5-7-7-7-7-8-8-8-8-9-9-9-9-|
 --3-3-3-3-3-3-3-3-3-3-3-3-3-3-3-3-|----------------------------------|

S S S S S S S S S S S S S S S S S S S S S S S S S S S S S S S S
 
 ----------------------------------|----------------------------------|
 ----------------------------------|----------------------------------|
 ----------------------------------|--5-5-5-5-5-5-5-5-5-5-5-5-5-5-5-5-|
 --3-3-3-3-3-3-3-3-3-3-3-3-3-3-3-3-|----------------------------------|

S S S S S S S S S S S S S S S S W W
 
 ----------------------------------|-------------------|-------------------|
 ----------------------------------|-------------------|-------------------|
 ----------------------------------|--5----------------|-------------------|
 --3-3-3-3-3-3-3-3-3-3-3-3-3-3-3-3-|-------------------|-------------------|

W W H S S S S S E.
 
 -------------------|-------------------|----------------------------|
 -------------------|-------------------|------------------7-10--L---|
 -------------------|-------------------|-----------7-9-10-----------|
 -------------------|-------------------|----------------------------|

E S S S S E S S S S E E E S S S S E S S S S E E
 
 ------------------------------|------------------------------|
 ------------------------------|------------------------------|
 ------------------------3--0--|------------------------3--0--|
 --0--0-0-0-0-0--0-0-0-0-------|--0--0-0-0-0-0--0-0-0-0-------|

E S S S S E S S S S E E E S S S S S S S S S S Q
 
 ------------------------------|--------------------------------|
 ------------------------------|------------------------7-10----|
 --6--6-6-6-6-6--6-6-6-6-3--0--|--7--7-7-7-7-7-7-7-9-10---------|
 ------------------------------|--------------------------------|

E S S S S E S S S S E E E S S S S E S S S S E E
 
 ------------------------------|------------------------------|
 ------------------------------|------------------------------|
 ------------------------3--0--|------------------------3--0--|
 --0--0-0-0-0-0--0-0-0-0-------|--0--0-0-0-0-0--0-0-0-0-------|

E S S S S E S S S S E E H S S E S S E Q H.
 
 ------------------------------|---------------------------|--------------------|
 ------------------------------|-----------10-9-7----------|--------------------|
 --6--6-6-6-6-6--6-6-6-6-3--0--|--7----------------10-9-7--|--2-----------------|
 ------------------------------|---------------------------|--------------------|

Q H. Q E H E Q Q S E. S E.
 
 --------------------|----------------------|------------------------|
 --------------------|----------------------|------------------------|
 --2-----------------|--2----2--------------|--2---------2-----0-----|
 --------------------|----------------------|------------------------|

Q H. Q H. Q E H E
 
 --------------------|--------------------|----------------------|
 --------------------|--------------------|----------------------|
 --2-----------------|--2-----------------|--2----2--------------|
 --------------------|--------------------|----------------------|

Q Q S S S S S S S S S S S S S S S S S S S S S S S S
 
 ----------------------------|----------------------------------|
 ----------------------------|----------------------------------|
 --2---------3-3-3-3-5-5-5-5-|----------------------------------|
 ----------------------------|--2-2-2-2-2-2-2-2-2-2-2-2-2-2-2-2-|

S S S S S S S S S S S S S S S S S S S S S S S S S S S S S S S S
 
 ----------------------------------|----------------------------------|
 ----------------------------------|----------------------------------|
 --2-2-2-2-2-2-2-2-2-2-2-2-2-2-2-2-|----------------------------------|
 ----------------------------------|--0-0-0-0-0-0-0-0-0-0-0-0-0-0-0-0-|

S S S S S S S S S S S S S S S S S S S S S S S S S S S S S S S S
 
 ----------------------------------|----------------------------------|
 ----------------------------------|----------------------------------|
 --2-2-2-2-2-2-2-2-2-2-2-2-2-2-2-2-|----------------------------------|
 ----------------------------------|--3-3-3-3-3-3-3-3-3-3-3-3-3-3-3-3-|

S S S S S S S S S S S S S S S S S S S S S S S S S S S S S S S S
 
 ----------------------------------|----------------------------------|
 ----------------------------------|----------------------------------|
 --5-5-5-5-5-5-5-5-5-5-5-5-5-5-5-5-|----------------------------------|
 ----------------------------------|--5-5-5-5-5-5-5-5-5-5-5-5-5-5-5-5-|

S S S S S S S S S S S S S S S S S S S S S S S S S S S S S S S S
 
 ----------------------------------|----------------------------------|
 ----------------------------------|----------------------------------|
 ----------------------------------|----------------------------------|
 --5-5-5-5-5-5-5-5-5-5-5-5-5-5-5-5-|--2-2-2-2-2-2-2-2-2-2-2-2-2-2-2-2-|

S S S S S S S S S S S S S S S S S S S S S S S S S S S S S S S S
 
 ----------------------------------|----------------------------------|
 ----------------------------------|----------------------------------|
 --2-2-2-2-2-2-2-2-2-2-2-2-2-2-2-2-|----------------------------------|
 ----------------------------------|--0-0-0-0-0-0-0-0-0-0-0-0-0-0-0-0-|

S S S S S S S S S S S S S S S S S S S S S S S S S S S S S S S S
 
 ----------------------------------|----------------------------------|
 ----------------------------------|----------------------------------|
 --2-2-2-2-2-2-2-2-2-2-2-2-2-2-2-2-|----------------------------------|
 ----------------------------------|--3-3-3-3-3-3-3-3-3-3-3-3-3-3-3-3-|

S S S S S S S S S S S S S S S S S S S S S S S S S S S S S S S S
 
 ----------------------------------|----------------------------------|
 ----------------------------------|----------------------------------|
 --5-5-5-5-5-5-5-5-5-5-5-5-5-5-5-5-|----------------------------------|
 ----------------------------------|--5-5-5-5-5-5-5-5-5-5-5-5-5-5-5-5-|

S S S S S S S S S S S S S S S S S S S S S S S S S S S S S S S S
 
 ----------------------------------|----------------------------------|
 ----------------------------------|----------------------------------|
 ----------------------------------|----------------------------------|
 --5-5-5-5-5-5-5-5-5-5-5-5-5-5-5-5-|--2-2-2-2-2-2-2-2-2-2-2-2-2-2-2-2-|

S S S S S S S S S S S S S S S S S S S S S S S S S S S S S S S S
 
 ----------------------------------|----------------------------------|
 ----------------------------------|----------------------------------|
 --2-2-2-2-2-2-2-2-2-2-2-2-2-2-2-2-|----------------------------------|
 ----------------------------------|--0-0-0-0-0-0-0-0-0-0-0-0-0-0-0-0-|

S S S S S S S S S S S S S S S S S S S S S S S S S S S S S S S S
 
 ----------------------------------|----------------------------------|
 ----------------------------------|----------------------------------|
 --2-2-2-2-2-2-2-2-2-2-2-2-2-2-2-2-|----------------------------------|
 ----------------------------------|--3-3-3-3-3-3-3-3-3-3-3-3-3-3-3-3-|

S S S S S S S S S S S S S S S S S S S S S S S S S S S S S S S S
 
 ----------------------------------|----------------------------------|
 ----------------------------------|----------------------------------|
 --5-5-5-5-5-5-5-5-5-5-5-5-5-5-5-5-|----------------------------------|
 ----------------------------------|--5-5-5-5-5-5-5-5-5-5-5-5-5-5-5-5-|

S S S S S S S S S S S S S S S S S S S S S S S S S S S S S S S S
 
 ----------------------------------|----------------------------------|
 ----------------------------------|----------------------------------|
 ----------------------------------|----------------------------------|
 --5-5-5-5-5-5-5-5-5-5-5-5-5-5-5-5-|--2-2-2-2-2-2-2-2-2-2-2-2-2-2-2-2-|

S S S S S S S S S S S S S S S S S S S S S S S S S S S S S S S S
 
 ----------------------------------|----------------------------------|
 ----------------------------------|----------------------------------|
 --2-2-2-2-2-2-2-2-2-2-2-2-2-2-2-2-|----------------------------------|
 ----------------------------------|--0-0-0-0-0-0-0-0-0-0-0-0-0-0-0-0-|

S S S S S S S S S S S S S S S S S S S S S S S S S S S S S S S S
 
 ----------------------------------|----------------------------------|
 ----------------------------------|----------------------------------|
 --2-2-2-2-2-2-2-2-2-2-2-2-2-2-2-2-|----------------------------------|
 ----------------------------------|--3-3-3-3-3-3-3-3-3-3-3-3-3-3-3-3-|

S S S S S S S S S S S S S S S S W W
 
 ----------------------------------|-------------------|-------------------|
 ----------------------------------|-------------------|-------------------|
 --5-5-5-5-5-5-5-5-5-5-5-5-5-5-5-5-|--4----------------|--L----------------|
 ----------------------------------|-------------------|-------------------|

E S S S S E S S S S E E E S S S S E S S S S E E
 
 ------------------------------|------------------------------|
 ------------------------------|------------------------------|
 ------------------------3--0--|------------------------3--0--|
 --0--0-0-0-0-0--0-0-0-0-------|--0--0-0-0-0-0--0-0-0-0-------|

E S S S S E S S S S E E E S S S S S S S S S S Q
 
 ------------------------------|--------------------------------|
 ------------------------------|------------------------7-10----|
 --6--6-6-6-6-6--6-6-6-6-3--0--|--7--7-7-7-7-7-7-7-9-10---------|
 ------------------------------|--------------------------------|

E S S S S E S S S S E E E S S S S E S S S S E E
 
 ------------------------------|------------------------------|
 ------------------------------|------------------------------|
 ------------------------3--0--|------------------------3--0--|
 --0--0-0-0-0-0--0-0-0-0-------|--0--0-0-0-0-0--0-0-0-0-------|

E S S S S E S S S S E E Q S E Q E S E Q E E H
 
 ------------------------------|-------------------------|----------------------|
 ------------------------------|-------------------------|----------------------|
 --6--6-6-6-6-6--6-6-6-6-3--0--|-------------------------|----------------------|
 ------------------------------|--3---------3------------|--3----------7--------|

W Q E E H
 
 -------------------|----------------------||
 -------------------|----------------------||
 -------------------|----------------------||
 --L----------------|-------------3--------||

Duration Legend
 
 ---------------

W - whole
H - half
Q - quarter
E - 8th
S - 16th
T - 32nd
X - 64th
. - note dotted
|-n-| - n-tuplets
Tablature Legend
 
 ----------------

L - tied note
x - dead note
g - grace note
(n) - ghost note
> - accentuded note
NH - natural harmonic
AH - artificial harmonic
TH - tapped harmonic
SH - semi harmonic
PH - pitch harmonic
h - hammer on
p - pull off
b - bend
br - bendRelease
pb - preBend
pbr - preBendRelease
brb - bendReleaseBend
\n/ - tremolo bar dip
\n - tremolo bar dive
-/n - tremolo bar Release up
/n\ - tremolo bar inverted dip
/n - tremolo bar return
-\n - tremolo bar Release down
S - shift slide
s - legato slide
/ - slide into from below or out of upwards
\ - slide into from above or out of downwards
~ - vibrato
W - wide vibrato
tr - trill
TP - tremolo picking
T - tapping
S - slap
P - pop
< - fade in
^ - brush up
v - brush down

Important: The song above is NOT stored on the Chordie server. The original song is hosted at www.guitartabs.cc. Chordie works as a search engine and provides on-the-fly formatting. Chordie does not index songs against artists'/composers' will. To remove this song please click here.

Text color:
Chord color:
Chord grids: 
Font size:    
Page size: 

E
Rate #1 of 1 versions

Jango Player

Login - add to songbook

SHARE PAGE  




You need to log in to post comments