Guitar Tabs, Chords and Lyrics
Server problems seems to be fixed. Chordie has been experiencing problems with songs disappearing. These issues now seems to be fixed, but still verifying the fix. If you find anything strange, please email admin@chordie.com.


Your Cheatin' Heart  Hank Williams

 
 -------------------------------------------------------------------------------

YOUR CHEATIN? HEART ? Hank Williams
 
 -------------------------------------------------------------------------------

Tabbed by: econista
Tuning: Standard, Key of G
Play AABA, AABC
A:
 
 G|---------------|--------------|--------------|--------------|
 D|---------------|-----5-----5--|--------------|--------------|
 A|------5-----5--|--3-----3-----|--5-----5-----|-----5-----5--|
 E|---3-----3-----|--------------|-----5-----5--|--3-----3-----|

[G] [C] [D] [G] 
[1] [2] [3] [4] [1] [2] [3] [4] [1] [2] [3] [4] [1] [2] [3] [4] 
B:
 
 G|---------------|--------------|--------------|--------------|
 D|------5-----5--|--------------|-----2-----2--|--------------|
 A|---3-----3-----|-----5-----5--|--0-----0-----|--5-----5-----|
 E|---------------|--3-----3-----|--------------|-----5-----5--|

[C] [G] [A] [D] 
[1] [2] [3] [4] [1] [2] [3] [4] [1] [2] [3] [4] [1] [2] [3] [4] 
C:
 
 G|---------------|--------------|--------------|--------------|
 D|---------------|-----5-----5--|--------------|-----5--------|
 A|------5-----5--|--3-----3-----|--5-----5-----|--3-----------|
 E|---3-----3-----|--------------|-----5-----5--|--------3-----|

[G] [C] [D] [C] [G] 
[1] [2] [3] [4] [1] [2] [3] [4] [1] [2] [3] [4] [1] [2] [3] [4] 
Verse 1.
Your [G]cheatin' heart, will [C]make you weep.
You'll [D]cry and cry, and [G]try to sleep.
But [G]sleep won't come, the [C]whole night through.
Your [D]cheatin? heart, will [G]tell on you.
CHORUS:
When [C]tears come down, like [G]falling rain..
you'll [A]toss around, and [D]call my name.
You'll [G]walk the floor, the [C]way I do.
Your [D]cheatin' heart, will [G]tell on you.
Verse 2.
Your cheatin' heart, will pine some day..
and crave the love, you threw away.
The time will come, when you'll be blue.
Your cheatin heart, will tell on you.
CHORUS:
OUTRO: Your c[D]heatin' heart, will tell o[(C]n you.[G)]

Important: The song above is NOT stored on the Chordie server. The original song is hosted at www.guitartabs.cc. Chordie works as a search engine and provides on-the-fly formatting. Chordie does not index songs against artists'/composers' will. To remove this song please click here.

Text color:
Chord color:
Chord grids: 
Font size:    
Page size: 

A C D G
Rate #1 of 7 versions

Login - add to songbook

SHARE PAGE  



You need to log in to post comments