Guitar Tabs, Chords and Lyrics
Server problems seems to be fixed. Chordie has been experiencing problems with songs disappearing. These issues now seems to be fixed, but still verifying the fix. If you find anything strange, please email admin@chordie.com.


Halloween  Helloween

HALLOWEEN (Bassline)
As recorded by Helloween
(From the 1988 Album KEEPER OF THE SEVEN KEYS PT. 1)
Transcribed by Asmogriff (ComfortablyDumb)
Words and Music by Kai Hansen
Arranged by Helloween
Gtr I (E A D G) - 'Pick'
Gtr II (E A D G) - 'Slap'
Intro
Q=82
[4/4] Gtr I
W W H Q Q
 
 |----------|----------|---------------|
 |----------|----------|---------------|
 |----------|----------|---------------|
 |----------|----------|---------12\---|

H. Q H +E E E E H. Q W
 
 |------------|----------------|------------|------|
 |------------|----------2-----|------------|-4----|
 |---------2--|-1----(1)-------|---------6--|------|
 |-0----------|------------3-2-|-0----------|------|

H. Q H +E E E E H. Q H +E E E E
 
 |------------|----------------|------------|----------------|
 |------------|----------2-----|------------|-4----(4)-0-4-5-|
 |---------2--|-1----(1)-------|---------6--|----------------|
 |-0----------|------------3-2-|-0----------|----------------|

Q. E Q Q Q. E E E E E
 
 ||---------------|----------------|
 ||o--------------|----------2-----|
 ||o-----------2--|-1----1-1-------|
 ||--0----0-0-----|------------3-2-|

1. 2H=H
Q. E Q Q Q. E E E E E E E Q H
 
 |--------------|-----------------||-------------||
 |--------------|-4----4-4-5-4-3-o||-4-----------||
 |--------7--6--|----------------o||-------------||
 |-0----0-------|-----------------||-------------||

Pre-Verse
Q=152
E S S E S S E S S E S S E S S E E +E S S S E.
 
 ||--------------------------|---------------------------|
 ||o-------------------------|---------------------------|
 ||o-7-7-7-7-7-7-7-7-7-7-7-7-|-7-------------10-10-9h10--|
 ||--------------------------|---7-7-7-6-(6)-------------|

E S S E S S E S S E S S E E E E E E E E
 
 |-------------------------|------------------|
 |-------------------------|-------------5----|
 |-7-7-7-7-7-7-7-7-7-7-7-7-|-7-------------5--|
 |-------------------------|---0-7-0-6-0------|

E S S E S S E S S E S S
 
 |-------------------------|
 |-------------------------|
 |-7-7-7-7-7-7-7-7-7-7-7-7-|
 |-------------------------|

E S S E E +E S S S E. E S S E S S E S S E S S
 
 |---------------------------|-------------------------|
 |---------------------------|-------------------------|
 |-7-------------10-10-9h10--|-7-7-7-7-7-7-7-7-7-7-7-7-|
 |---7-7-7-6-(6)-------------|-------------------------|

[2/4] E S S E E [4/4] +W +H. Q
 
 |-----------|------------|--------------||
 |-----------|------------|--------------||
 |-7-5-5-5-3-|-(3)--------|-(3)------3/--||
 |-----------|------------|--------------||

Verse
Q=150
S S S S E S S S S S S E S S
 
 |-----------------------------|
 |-----------------------------|
 |-7-7-7-7-7-5-7-7-7-7-7-7-----|
 |-------------------------8-8-|

S S S S S S E +E Q E S S S S E S S S S S S E S S
 
 |------------------------|-----------------------------|
 |------------------------|-----------------------------|
 |-----5-5-7-7-8-(8)-7--8-|-7-7-7-7-7-5-7-7-7-7-7-7-----|
 |-8-8--------------------|-------------------------8-8-|

S S S S S S S S S S S S Q S S S S S S S S S S S S Q
 
 |----------------------------|----------------------------|
 |----------------------------|----------------------------|
 |----------------------------|-5-5-5-5-5-5-5-5-5-5-5-5-5--|
 |-8-8-8-8-8-8-8-8-8-8-8-8-8--|----------------------------|

E S S E S S E S S S S S S E S S E S S S S S S Q
 
 |---------------------------|--------------------------|
 |---------------------------|--------------------------|
 |---------------------------|---------------------5----|
 |-0-0-0-0-0-0-0-0-0-0-0-0-0-|-0-0-0-0-0-0-0-0-0-0------|

S S S S E S S S S S S E S S
 
 |-----------------------------|
 |-----------------------------|
 |-7-7-7-7-7-5-7-7-7-7-7-7-----|
 |-------------------------8-8-|

S S S S S S E +E Q E S S S S E S S S S S S E S S
 
 |------------------------|-----------------------------|
 |------------------------|-----------------------------|
 |-----5-5-7-7-8-(8)-7--8-|-7-7-7-7-7-5-7-7-7-7-7-7-----|
 |-8-8--------------------|-------------------------8-8-|

S S S S S S S S S S S S Q S S S S S S S S S S S S Q
 
 |----------------------------|----------------------------|
 |----------------------------|----------------------------|
 |----------------------------|-5-5-5-5-5-5-5-5-5-5-5-5-5--|
 |-8-8-8-8-8-8-8-8-8-8-8-8-8--|----------------------------|

E S S E S S E S S S S S S E S S E S S S S S S S S S S
 
 |---------------------------|------------------------------||
 |---------------------------|------------------------------||
 |---------------------------|------------------------------||
 |-0-0-0-0-0-0-0-0-0-0-0-0-0-|-0-0-0-0-0-0-0-0-0-0-0-0-0-0--||

Bridge
E E E E E E E E E Q E +E Q E
 
 |---------7-------|-----------------|
 |-----------------|---5--4-(4)------|
 |-5-5-5-5---5-5-5-|-5----------7--5-|
 |-----------------|-----------------|

E E E E E E E E E S S E S S E S S E S S
 
 |---9-------------|----------------------------|
 |-----------------|---9-9-9-7-7-7--------------|
 |-7---7-7-7-7-7-7-|-7-------------10-10-10-9-9-|
 |-----------------|----------------------------|

E E E E E E E E E Q E +E Q E
 
 |---------7-------|-----------------|
 |-----------------|---5--4-(4)------|
 |-5-5-5-5---5-5-5-|-5----------7--5-|
 |-----------------|-----------------|

E E E E E E E E E S S E S S E S S E S S
 
 |---9-------------|----------------------------||
 |-----------------|---9-9-9-7-7-7--------------||
 |-7---7-7-7-7-7-7-|-7-------------10-10-10-9-9-||
 |-----------------|----------------------------||

Pre-Chorus
Q=143
S S S S S S S S S S S S S S S S
 
 |---------------------------------|
 |---------------------------------|
 |---------------------------------|
 |-8-8-8-8-8-8-8-8-8-8-8-8-8-8-8-8-|

E E S S S S S S S S S S S S E E S S S S S S S S S S S S
 
 |-------------------------------------------|------------------------------|
 |-------------------------------------------|------------------------------|
 |-10-10-10-10-10-10-10-10-10-10-10-10-10-10-|------------------------------|
 |-------------------------------------------|-7-7-7-7-7-7-7-7-7-7-7-7-7-7--|

S S S S S S S S Q Q S S S S S S S S S S S S S S S S
 
 |-----------------------|---------------------------------|
 |-----------------------|-5-5-5-5-5-5-5-5-5-5-5-5-5-5-5-5-|
 |-7-7-7-7-7-7-7-7-------|---------------------------------|
 |-----------------0--2--|---------------------------------|

S S S S S S S S S S S S S S S S
 
 |----------------------------------|
 |----------------------------------|
 |-5-5-5-5-5-5-5-5-5-5-5-5-5-5-5-5--|
 |----------------------------------|

E S S E S S E S S S S S S E S S E S S E E E E
 
 |---------------------------|---------------------|
 |---------------------------|---------------------|
 |---------------------------|-----------------7-9-|
 |-0-0-0-0-0-0-0-0-0-0-0-0-0-|-0-0-0-0-0-0-0-0-----|

Q S S S S S S S S S S S S
 
 |-----------------------------------------|
 |-----------------------------------------|
 |-10--10-10-10-10-10-10-10-10-10-10-10-10-|
 |-----------------------------------------|

S S S S S S S S S S S S S S S S
 
 |-------------------------------------------------|
 |-------------------------------------------------|
 |-------------------------------------------------|
 |-10-10-10-10-10-10-10-10-10-10-10-10-10-10-10-10-|

S S S S S S S S S S S S S S S S S S S S S S S S Q Q
 
 |---------------------------------|------------------------|
 |---------------------------------|------------------------|
 |---------------------------------|-7-7-7-7-7-7-7-7--------|
 |-7-7-7-7-7-7-7-7-7-7-7-7-7-7-7-7-|-----------------0--2---|

S S S S S S S S S S S S S S S S
 
 |---------------------------------|
 |-5-5-5-5-5-5-5-5-5-5-5-5-5-5-5-5-|
 |---------------------------------|
 |---------------------------------|

S S S S S S S S S S S S S S S S S S S S S S S S S S S S S S S S
 
 |---------------------------------|---------------------------------|
 |---------------------------------|---------------------------------|
 |-5-5-5-5-5-5-5-5-5-5-5-5-5-5-5-5-|---------------------------------|
 |---------------------------------|-2-2-2-2-2-2-2-2-2-2-2-2-2-2-2-2-|

S S S S S S S S S S S S S S S S S S S S S S S S S S S S S S S S
 
 |---------------------------------|---------------------------------|
 |---------------------------------|---------------------------------|
 |---------------------------------|---------------------------------|
 |-3-3-3-3-3-3-3-3-3-3-3-3-3-3-3-3-|-5-5-5-5-5-5-5-5-5-5-5-5-5-5-5-5-|

S S S S S S S S S S S S S S S S
 
 |---------------------------------||
 |---------------------------------||
 |-2-2-2-2-2-2-2-2-2-2-2-2-2-2-2-2-||
 |---------------------------------||

Chorus
H. Q Q Q Q Q H. Q H Q E E H. Q
 
 |------------|-------------|------------|-------------|------------|
 |-2----------|----5--4-----|-2----------|-------------|------------|
 |---------3--|-2--------5--|---------3--|-2----5--2-5-|---------3--|
 |------------|-------------|------------|-------------|-0----------|

1. 2.
Q Q Q Q H. Q W +H. Q W +W
 
 |-------------|------------|----------|---------------||----------|--------||
 |----5--4-----|-2----------|----------|--------------o||----------|--------||
 |-2--------5--|---------5--|-3--------|-(3)------3/--o||-3--------|-(3)----||
 |-------------|------------|----------|---------------||----------|--------||

Bridge
Q=155
E E Q Q E E E E Q E E E E E E Q H E E E E E E E E
 
 |---------------|----------------|-------------|-7-----5---4-----|
 |---------------|----------------|-------------|-9-----7---5-----|
 |---------------|-5--------5---5-|-7-----------|---------------5-|
 |-0-----------0-|----------------|-------------|-----------------|

E E Q Q E E E E Q E E E E E E Q H E E E E E E E E
 
 |---------------|----------------|-------------|-7-----5---4-----||
 |---------------|----------------|-------------|-9-----7---5-----||
 |-7-----------7-|-5--------5---5-|-7-----------|---------------5-||
 |---------------|----------------|-------------|-----------------||

Verse
Q=160
E E E E E E Q E E E E E E Q E E Q E E Q E E Q E E Q 4x
 
 ||--------------9--|-------------7--|-----9------7--|------------------||
 ||o----------------|----------------|---------------|-----10------9---o||
 ||o-7-7-7-7-7-7----|-7-7-7-7-7-7----|-7-7----7-7----|-7-7-----7-7-----o||
 ||-----------------|----------------|---------------|------------------||

Q. E H +H.. S S Q Q H H Q Q
 
 |--------5----|-(5)------------|------------|--------------|
 |-------------|----------------|------------|--------------|
 |-3----3------|------------3-3-|-3----------|--------------|
 |-------------|----------------|------------|---------12\--|

E E E S S H E E E S S E Q. E E E S S H E E E E H
 
 |----------------|------------------|----------------|---------0----|
 |----------------|------------------|----------------|-0-----1-2----|
 |-----------5----|-5-5---5-5-7-7\---|-3-3---3-3-2----|---3-2--------|
 |-0-0---0-0------|------------------|----------------|--------------|

E E E S S H E E E S S E Q. E E E S S H E E E E E E E E
 
 |----------------|------------------|----------------|------------------||
 |----------------|------------------|----------------|-0-----1-2--------||
 |-----------5----|-5-5---5-5-7-7\---|-3-3---3-3-2----|---3-2-----2------||
 |-0-0---0-0------|------------------|----------------|-------------3-2--||

Guitar Solo
E E E S S H E E E S S E Q. E E E S S H E E E E E E E E
 
 |----------------|------------------|----------------|------------------|
 |----------------|------------------|----------------|-0-----1-2--------|
 |-----------5----|-5-5---5-5-7-7\---|-3-3---3-3-2----|---3-2-----2------|
 |-0-0---0-0------|------------------|----------------|-------------3-2--|

E E E E E E E E E E E E E E E E E E E E E E E E E E E E E E E E 3x
 
 ||------------------|-----------------|-----------------|-------------------||
 ||o-----------------|-----------------|-----------------|-0-----1-2--------o||
 ||o---------5-5-5-5-|-5-5-5-5-7-7-7-7-|-3-3-3-3-2-2-2-2-|---3-2-----2------o||
 ||--0-0-0-0---------|-----------------|-----------------|-------------3-2---||

E E E S S H E E E S S E Q. W Q Q H
 
 |----------------|------------------|----------|------------||
 |----------------|------------------|----------|------------||
 |-----------5----|-5-5---5-5-7-7\---|-3--------|-2----------||
 |-0-0---0-0------|------------------|----------|------------||

Keyboard Verse
Q Q Q Q Q Q Q Q Q Q Q Q Q Q E E E E
 
 |-------------|-------------|-------------|---------------|
 |-------------|-------------|-------------|---------------|
 |-------------|-------------|-------------|---------------|
 |----0-----0--|----0-----0--|----0-----0--|----0----0-3-0-|

Q Q Q Q Q Q Q Q Q Q Q Q Q Q E E Q
 
 |-------------|-------------|-------------|--------------|
 |-------------|-------------|-------------|--------------|
 |-------------|-------------|-------------|--------------|
 |----0-----0--|----0-----0--|----0-----0--|----0----0-0--|

Q Q Q Q Q Q Q Q W E E E E E E E E
 
 |-------------|-------------|----------|-----------------|
 |-------------|-------------|----------|-----------------|
 |-------------|-------------|-3--------|-3-2-3-5-3-2-----|
 |----0-----0--|----0-----0--|----------|-------------3-2-|

Q Q Q Q Q Q Q Q Q Q Q Q Q Q E E E E Q Q Q Q
 
 |-------------|-------------|-------------|---------------|-------------|
 |-------------|-------------|-------------|---------------|-------------|
 |-------------|-------------|-------------|---------------|-------------|
 |----0-----0--|----0-----0--|----0-----0--|----0----0-3-0-|----0-----0--|

[2/4] Q Q [4/4] W W W E E E E E E E E
 
 |-------|----------|----------|----------|------------------||
 |-------|----------|----------|----------|------------------||
 |-------|----------|----------|-3--------|-3-2-3-5-3-2------||
 |----0--|----------|----------|----------|-------------3-2--||

Interlude
S S S S E S S S S S S E S S S S S S E S S E Q E 4x
 
 ||------------------------------|----------------------------------------||
 ||o-2-2-2-2-2-2-2-2-2-2-2-2-2-2-|-2-2-2-2-2-2-2--2-----------------2----o||
 ||o-----------------------------|----------------------2----------------o||
 ||------------------------------|----------------------------------------||

|
| Gtr II
| W H S S S S S S S S 4x
 
 ||------------------------------|----------------------------------------||
 ||o-----------------------------|---------------------12----------------o||
 ||o-----------------------------|---------------14-15----15-14-12-------o||
 ||------------------------------|---------------------------------15-14--||

S S S S E S S S S S S E S S S S S S E S S S S S S E S S
 
 ||------------------------------|------------------------------|
 ||o---------4-------------4-----|---------4-------------2------|
 ||o-----------------------------|------------------------------|
 ||--2-2-2-2---2-2-2-2-2-2---2-2-|-2-2-2-2---2-2-2-2-2-2---2-2--|

|
| W W
 
 ||------------------------------|------------------------------|
 ||o-----------------------------|------------------------------|
 ||o-----------------------------|------------------------------|
 ||------------------------------|------------------------------|

S S S S E S S S S S S E S S
 
 |-----------------------------|
 |---------4-------------4-----|
 |-----------------------------|
 |-2-2-2-2---2-2-2-2-2-2---2-2-|

|
| W
 
 |-----------------------------|
 |-----------------------------|
 |-----------------------------|
 |-----------------------------|

1. 2.
S S S S E S S S S S S Q S S S S E S S S S S S Q
 
 |----------------------------------------||----------------------------|
 |---------4------------------2----------o||---------4-------------2----|
 |---------------------------------------o||----------------------------|
 |-2-2-2-2---2-2--2--2--2--2--------------||-2-2-2-2---2-2-2-2-2-2------|

|
| H S S S S S S S S W
 
 |----------------------------------------||----------------------------|
 |------------------12-14-12-------------o||----------------------------|
 |---------------16----------16-14-12----o||----------------------------|
 |------------------------------------16--||----------------------------|

Guitar Solos
S S S S E S S S S S S E S S S S S S E S S E Q E
 
 ||------------------------------|-----------------------||
 ||o-2-2-2-2-2-2-2-2-2-2-2-2-2-2-|-2-2-2-2-2-2-2-2----2-o||
 ||o-----------------------------|-----------------2----o||
 ||------------------------------|-----------------------||

S S S S E S S S S S S E S S S S S S E S S S S S S E S S
 
 ||------------------------------|-------------------------------||
 ||o---------4-------------4-----|---------4-------------2------o||
 ||o-----------------------------|------------------------------o||
 ||--2-2-2-2---2-2-2-2-2-2---2-2-|-2-2-2-2---2-2-2-2-2-2---2-2---||

S S S S E S S S S S S E S S S S S S E S S E Q E
 
 ||------------------------------|-----------------------||
 ||o-2-2-2-2-2-2-2-2-2-2-2-2-2-2-|-2-2-2-2-2-2-2-2----2-o||
 ||o-----------------------------|-----------------2----o||
 ||------------------------------|-----------------------||

S S S S E S S S S S S E S S S S S S E S S S S S S E S S
 
 ||------------------------------|-------------------------------||
 ||o---------4-------------4-----|---------4-------------2------o||
 ||o-----------------------------|------------------------------o||
 ||--2-2-2-2---2-2-2-2-2-2---2-2-|-2-2-2-2---2-2-2-2-2-2---2-2---||

Verse
E E Q H W E E Q H W E E Q H
 
 ||--------------|----------|-------------|----------|-------------|
 ||o-------------|----------|-------------|----------|-------------|
 ||o-------------|----------|-------------|----------|-------------|
 ||--0-0---------|----------|-2-2---------|----------|-0-0---------|

1. 2H.=H Q=42
W E E Q H H E E Q E E +H. +W
 
 |----------|-------------|---------------||--------------|--------||
 |----------|-------------|--------------o||--------------|--------||
 |----------|-------------|--------4-7\--o||--------------|--------||
 |----------|-2-2---------|---------------||-2-2-(2)------|-(2)----||

Guitar Solos
Q=112
H H Q. S S Q. S S E E E E E E E E
 
 |-----------|-------------------|-----------------|
 |-4----2----|-------------------|-----------------|
 |-----------|-5----5-5-5----0-0-|-5-4-5-7-5-4-----|
 |-----------|-------------------|-------------5-4-|

E E E E Q. S S E E E E E E E E
 
 |------------------|-------------------|
 |---4-----4--------|-------------------|
 |------------------|-------------------|
 |-2---2-2------2-2-|-2-0-2-4-5-2-4-5---|

E E E E Q. S S E E E E E E E E E E E E Q. S S E E E E E E E E
 
 |---7-----7--------|-----------------|------------------|------------------||
 |------------------|-----------------|---4-----4----4-4-|------------------||
 |-5---5-5------5-5-|-5-4-5-7-5-4-----|------------------|------------------||
 |------------------|-------------5-4-|-2---2-2----------|-2-0-2-4-5-2-4-5--||

Q=107
Q. S S H E E E E E E E E Q E E Q. S S
 
 |---------------|-----------------|-----------------|
 |---------------|-----------------|--------4--------|
 |-5----5-5-5----|-5-4-5-7-5-4-----|-----------------|
 |---------------|-------------5-4-|-2--2-2------2-2-|

E E E E E E E E Q. S S Q. S S E E E E E E E E
 
 |-----------------|-------------------|-----------------||
 |-----------------|-------------------|-----------------||
 |-----------------|-5----5-5-5----5-5-|-5-4-5-7-5-4-----||
 |-2-0-2-4-5-2-4-5-|-------------------|-------------5-4-||

More Solos
Q=145
 
 |-3-| |-3-| |-3-| |-3-| |-3-| |-3-| |-3-| |-3-|

[E] [E] [E] [E] [E] [E] [E] [E] [E] [E] [E] [E] [E] [E] [E] [E] [E] [E] [E] [E] [E] [E] [E] [E]  
 
 ||--------------------------|--------------------------||
 ||o-------------------------|-------------------------o||
 ||o-------------------------|-3-3-3-3-3-3-2-3-2-------o||
 ||--0-0-0-0-0-0-0-0-0-0-2-3-|-------------------5-3-2--||
 |-3-| |-3-| |-3-| |-3-| |-3-| |-3-| |-3-| |-3-|

[E] [E] [E] [E] [E] [E] [E] [E] [E] [E] [E] [E] [E] [E] [E] [E] [E] [E] [E] [E] [E] [E] [E] [E]  
 
 ||--------------------------|--------------------------||
 ||o-------------------------|-------------------------o||
 ||o-------------------------|-5-5-5-5-5-5-4-5-4-2-----o||
 ||--2-2-2-2-2-2-2-2-2-2-4-5-|---------------------5-4--||
 |-3-| |-3-| |-3-| |-3-| |-3-| |-3-| |-3-| |-3-|

[E] [E] [E] [E] [E] [E] [E] [E] [E] [E] [E] [E] [E] [E] [E] [E] [E] [E] [E] [E] [E] [E] [E] [E]  
 
 ||--------------------------|--------------------------||
 ||o-------------------------|-------------------------o||
 ||o-------------------------|-3-3-3-3-3-3-2-3-2-------o||
 ||--0-0-0-0-0-0-0-0-0-0-2-3-|-------------------5-3-2--||
 |-3-| |-3-| |-3-| |-3-| |-3-| |-3-| |-3-| |-3-|

[E] [E] [E] [E] [E] [E] [E] [E] [E] [E] [E] [E] [E] [E] [E] [E] [E] [E] [E] [E] [E] [E] [E] [E]  
 
 ||--------------------------|--------------------------||
 ||o-------------------------|-------------------------o||
 ||o-------------------------|-5-5-5-5-5-5-4-5-4-2-----o||
 ||--2-2-2-2-2-2-2-2-2-2-4-5-|---------------------5-4--||

Verse
E E E E S S S S E E S S S S E E S S S S E E
 
 |---------------------|-------------------------|
 |---------------------|-------------------------|
 |---------------------|-----------------------7-|
 |-0---0-0-0-0-0-0-0---|-0-0-0-0-0---0-0-0-0-0---|

S S S S E E S S S S E E S S S S E E S S S S E E
 
 |-------------------------|--------------------------|
 |-------------------------|--------------------------|
 |-------------------------|-----------------------7--|
 |-0-0-0-0-0---0-0-0-0-0---|-0-0-0-0-0---0-0-0-0-0----|

S S S S E E S S S S E E S S S S E E S S S S E E
 
 |-------------------------|-------------------------|
 |-------------------------|-------------------------|
 |-------------------------|-------------------------|
 |-0-0-0-0-0---0-0-0-0-0---|-0-0-0-0-0---0-0-0-0-0---|

S S S S E E S S S S E E S S S S E E S S S S E E
 
 |-------------------------|----------------------------|
 |-------------------------|----------------------------|
 |-------------------------|-----------------------7----|
 |-0-0-0-0-0---0-0-0-0-0---|-0-0-0-0-0---0-0-0-0-0------|

S S S S E E S S S S E E S S S S E E S S S S E E
 
 |-------------------------|-------------------------|
 |-------------------------|-------------------------|
 |-------------------------|-------------------------|
 |-0-0-0-0-0---0-0-0-0-0---|-0-0-0-0-0---0-0-0-0-0---|

S S S S E E S S S S E E S S S S E E S S S S E E
 
 |-------------------------|----------------------------|
 |-------------------------|----------------------------|
 |-------------------------|-----------7-----------7----|
 |-0-0-0-0-0---0-0-0-0-0---|-0-0-0-0-0---0-0-0-0-0------|

S S S S E E S S S S E E S S S S E E S S S S E E
 
 ||--------------------------|-------------------------|
 ||o-------------------------|-------------------------|
 ||o-------------------------|-------------------------|
 ||--0-0-0-0-0---0-0-0-0-0---|-0-0-0-0-0---0-0-0-0-0---|

S S S S E E S S S S E E S S S S E E S S S S E E
 
 |-------------------------|----------------------------||
 |-------------------------|---------------------------o||
 |-------------------------|-----------7-----------7---o||
 |-0-0-0-0-0---0-0-0-0-0---|-0-0-0-0-0---0-0-0-0-0------||

S S S S E E S S S S E E S S S S E E S S S S E E
 
 ||--------------------------|-------------------------|
 ||o-------------------------|-------------------------|
 ||o-------------------------|-------------------------|
 ||--0-0-0-0-0---0-0-0-0-0---|-0-0-0-0-0---0-0-0-0-0---|

S S S S E E S S S S E E 4x[3/4] S S S S S S S S S S S S
 
 |------------------------------||-----------------------------|
 |----------9-9----------10-10-o||-----------------------------|
 |-7-9-10-7-----7-9-10-7-------o||-7-9-10-7-7-7-7-7------------|
 |------------------------------||------------------10-10-10-8-|

[4/4] S S S S S S S S S S S S S S S S S S S S S S S S S S S S S S S S
 
 |---------------------------------|----------------------------------|
 |---------------------------------|----------------------------------|
 |---------------------------------|----------------------------------|
 |-8-8-8-8-8-8-8-8-8-8-8-8-8-8-8-8-|-8-8-8-8-8-8-8-8-8-8-8-8-8-8-8-8--|

S S S S E E S S S S E E [3/4] S S S S S S S S S S S S
 
 |-----------------------------|-----------------------------|
 |----------9-9----------10-10-|-----------------------------|
 |-7-9-10-7-----7-9-10-7-------|-7-9-10-7-7-7-7-7------------|
 |-----------------------------|------------------10-10-10-8-|

[4/4] S S S S S S S S S S S S S S S S S S S S S S S S S S S S Q
 
 ||----------------------------------|-----------------------------|
 ||o---------------------------------|-----------------------------|
 ||o---------------------------------|-----------------------------|
 ||--8-8-8-8-8-8-8-8-8-8-8-8-8-8-8-8-|-8-8-8-8-8-8-8-8-8-8-8-8-10--|

S S S S E E S S S S E E [3/4] S S S S S S S S S S S S
 
 |-----------------------------|------------------------------||
 |----------9-9----------10-10-|-----------------------------o||
 |-7-9-10-7-----7-9-10-7-------|-7-9-10-7-7-7-7-7------------o||
 |-----------------------------|------------------10-10-10-8--||

[4/4] S S S S S S S S S S S S S S S S S S S S S S S S S S S S S S S S
 
 |---------------------------------|----------------------------------|
 |---------------------------------|----------------------------------|
 |---------------------------------|----------------------------------|
 |-8-8-8-8-8-8-8-8-8-8-8-8-8-8-8-8-|-8-8-8-8-8-8-8-8-8-8-8-8-8-8-8-8--|

S S S S S S S S S S S S S S S S W
 
 |---------------------------------|------||
 |---------------------------------|------||
 |---------------------------------|------||
 |-7-7-7-7-7-7-7-7-7-7-7-7-7-7-7-7-|-7----||

Interlude Part 1
S S S S S S S S S S S S S S S S S S S S S S S S S S S S S S S S
 
 ||----------------------------------|---------------------------------|
 ||o---------------------------------|---------------------------------|
 ||o---------------------------------|---------------------------------|
 ||--5-5-5-5-5-5-5-5-5-5-5-5-5-5-5-5-|-5-5-5-5-5-5-5-5-5-5-5-5-5-5-5-5-|

S S S S S S S S S S S S S S S S S S S S S S S S S S S S S S S S
 
 |---------------------------------|------------------------------------|
 |---------------------------------|------------------------------------|
 |-7-7-7-7-7-7-7-7-7-7-7-7-7-7-7-7-|-7-7-7-7-7-7-7-7-7-7-7-7-7-7-7-7----|
 |---------------------------------|------------------------------------|

S S S S S S S S S S S S S S S S S S S S S S S S S S S S S S S S
 
 |---------------------------------|---------------------------------|
 |---------------------------------|---------------------------------|
 |---------------------------------|---------------------------------|
 |-5-5-5-5-5-5-5-5-5-5-5-5-5-5-5-5-|-5-5-5-5-5-5-5-5-5-5-5-5-5-5-5-5-|

S S S S S S S S S S S S S S S S S S S S S S S S S S S S S S S S
 
 |---------------------------------|------------------------------------|
 |---------------------------------|------------------------------------|
 |-7-7-7-7-7-7-7-7-7-7-7-7-7-7-7-7-|-7-7-7-7-7-7-7-7-7-7-7-7-7-7-7-7----|
 |---------------------------------|------------------------------------|

Q E E Q E E E E E S S E E Q
 
 |-----------------|-------------------||
 |-----------------|-------7-7-7------o||
 |-7\------7\------|------------------o||
 |-------7-------4-|-5-----------------||

Interlude Part 2
S S S S S S S S S S S S S S S S S S S S S S S S S S S S S S S S
 
 ||----------------------------------|---------------------------------|
 ||o---------------------------------|---------------------------------|
 ||o-2-2-2-2-2-2-2-2-2-2-2-2-2-2-----|-------------2-2-2-2-2-2-2-2-----|
 ||------------------------------2-2-|-2-2-2-2-2-2-----------------3-3-|

S S S S S S S S S S S S S S S S
 
 |---------------------------------|
 |---------------------------------|
 |-------------2-2-2-2-2-2-2-2-----|
 |-3-3-3-3-3-3-----------------2-2-|

1. 2.
S S S S S S S S S S S S S S S S S S S S S S S S Q Q
 
 |----------------------------------||-----------------------||
 |---------------------------------o||-----------------------||
 |-------------2-2-2-2-2-2-2-2-2-2-o||-------------2-2-2-----||
 |-2-2-2-2-2-2----------------------||-2-2-2-2-2-2-----------||

Interlude Part 3
Q Q Q Q Q Q Q Q Q Q Q Q Q Q Q Q
 
 ||--------------|-------------|-------------|--------------|
 ||o-2-----------|-------2-----|-2-----------|--------------|
 ||o-------3-----|-2-----------|-------3-----|-2------------|
 ||--------------|-------------|-------------|-------0------|

S S S S S S S S S S S S S S S S
 
 |---------------------------------|
 |---------------------------------|
 |-2-2-2-2-2-2-2-2-2-2-2-2-2-2-2-2-|
 |---------------------------------|

S S S S S S S S E E Q S S S S S S S S S S S S S S S S
 
 |------------------------|---------------------------------|
 |------------------------|---------------------------------|
 |-----------------2---2--|-2-2-2-2-2-2-2-2-2-2-2-2-2-2-2-2-|
 |-2-2-2-2-2-2-2-2---2----|---------------------------------|

1. 2.
[5/4] S S S S S S S S E E Q Q [4/4] S S S S S S S S E E Q
 
 |----------------------------||------------------------|
 |---------------------------o||------------------------|
 |-----------------2---2-----o||-----------------2---2--|
 |-2-2-2-2-2-2-2-2---2--------||-2-2-2-2-2-2-2-2---2----|

S S S S S S S S S S S S S S S S S S S S S S S S E E Q
 
 |---------------------------------|------------------------|
 |-2-2-2-2-2-2-2-2-2-2-2-2-2-2-2-2-|-----------------2---2--|
 |---------------------------------|-2-2-2-2-2-2-2-2---2----|
 |---------------------------------|------------------------|

S S S S S S S S S S S S S S S S S S S S S S S S S S S S Q
 
 |---------------------------------|------------------------------|
 |-2-2-2-2-2-2-2-2-2-2-2-2-2-2-2-2-|------------------------------|
 |---------------------------------|-2-2-2-2-2-2-2-2-2-0----------|
 |---------------------------------|---------------------3-2-0----|

Q Q Q Q Q Q Q Q Q Q Q Q Q Q Q Q
 
 |-/11--9--8-----|-----------------|----------------|-12--11--9--8--|
 |------------9--|-/12--10--9------|-9--------------|---------------|
 |---------------|-------------10--|----12--10------|---------------|
 |---------------|-----------------|------------12--|---------------|

Q Q Q Q Q Q Q Q Q Q Q Q
 
 |---------------|-------------|-------------||
 |-10--9--7------|-------------|-------------||
 |-----------10--|-9--7--6-----|-------------||
 |---------------|----------8--|-7--5--3--2--||

Bridge
E E E E E E E E E Q E +E Q E
 
 ||----------7-------|-----------------|
 ||o-----------------|---5--4-(4)------|
 ||o-5-5-5-5---5-5-5-|-5----------7--5-|
 ||------------------|-----------------|

E E E E E E E E E S S E S S E S S E S S
 
 |---9-------------|------------------------------||
 |-----------------|---9-9-9-7-7-7---------------o||
 |-7---7-7-7-7-7-7-|-7-------------10-10-10-9-9--o||
 |-----------------|------------------------------||

Pre-Chorus
Q=143
S S S S S S S S S S S S S S S S
 
 |---------------------------------|
 |---------------------------------|
 |---------------------------------|
 |-8-8-8-8-8-8-8-8-8-8-8-8-8-8-8-8-|

E E S S S S S S S S S S S S E E S S S S S S S S S S S S
 
 |-------------------------------------------|------------------------------|
 |-------------------------------------------|------------------------------|
 |-10-10-10-10-10-10-10-10-10-10-10-10-10-10-|------------------------------|
 |-------------------------------------------|-7-7-7-7-7-7-7-7-7-7-7-7-7-7--|

S S S S S S S S Q Q S S S S S S S S S S S S S S S S
 
 |-----------------------|---------------------------------|
 |-----------------------|-5-5-5-5-5-5-5-5-5-5-5-5-5-5-5-5-|
 |-7-7-7-7-7-7-7-7-------|---------------------------------|
 |-----------------0--2--|---------------------------------|

S S S S S S S S S S S S S S S S
 
 |----------------------------------|
 |----------------------------------|
 |-5-5-5-5-5-5-5-5-5-5-5-5-5-5-5-5--|
 |----------------------------------|

E S S E S S E S S S S S S E S S E S S E E E E
 
 |---------------------------|---------------------|
 |---------------------------|---------------------|
 |---------------------------|-----------------7-9-|
 |-0-0-0-0-0-0-0-0-0-0-0-0-0-|-0-0-0-0-0-0-0-0-----|

Q S S S S S S S S S S S S
 
 |-----------------------------------------|
 |-----------------------------------------|
 |-10--10-10-10-10-10-10-10-10-10-10-10-10-|
 |-----------------------------------------|

S S S S S S S S S S S S S S S S
 
 |-------------------------------------------------|
 |-------------------------------------------------|
 |-------------------------------------------------|
 |-10-10-10-10-10-10-10-10-10-10-10-10-10-10-10-10-|

S S S S S S S S S S S S S S S S S S S S S S S S Q Q
 
 |---------------------------------|------------------------|
 |---------------------------------|------------------------|
 |---------------------------------|-7-7-7-7-7-7-7-7--------|
 |-7-7-7-7-7-7-7-7-7-7-7-7-7-7-7-7-|-----------------0--2---|

S S S S S S S S S S S S S S S S
 
 |---------------------------------|
 |-5-5-5-5-5-5-5-5-5-5-5-5-5-5-5-5-|
 |---------------------------------|
 |---------------------------------|

S S S S S S S S S S S S S S S S S S S S S S S S S S S S S S S S
 
 |---------------------------------|---------------------------------|
 |---------------------------------|---------------------------------|
 |-5-5-5-5-5-5-5-5-5-5-5-5-5-5-5-5-|---------------------------------|
 |---------------------------------|-2-2-2-2-2-2-2-2-2-2-2-2-2-2-2-2-|

S S S S S S S S S S S S S S S S S S S S S S S S S S S S S S S S
 
 |---------------------------------|---------------------------------|
 |---------------------------------|---------------------------------|
 |---------------------------------|---------------------------------|
 |-3-3-3-3-3-3-3-3-3-3-3-3-3-3-3-3-|-5-5-5-5-5-5-5-5-5-5-5-5-5-5-5-5-|

S S S S S S S S S S S S S S S S
 
 |---------------------------------||
 |---------------------------------||
 |-2-2-2-2-2-2-2-2-2-2-2-2-2-2-2-2-||
 |---------------------------------||

Chorus
H. Q Q Q Q Q H. Q H Q E E
 
 |------------|-------------|------------|-------------|
 |-2----------|----5--4-----|-2----------|-------------|
 |---------3--|-2--------5--|---------3--|-2----5--2-5-|
 |------------|-------------|------------|-------------|

H. Q Q Q Q Q H. Q
 
 |------------|-------------|--------------|
 |------------|----5--4-----|-2------------|
 |---------3--|-2--------5--|---------3----|
 |-0----------|-------------|--------------|

H Q E E H. Q Q Q Q Q H. Q
 
 |-------------|------------|-------------|------------|
 |-------------|-2----------|----5--4-----|-2----------|
 |-2----5--2-5-|---------3--|-2--------5--|---------3--|
 |-------------|------------|-------------|------------|

H Q E E H. Q Q Q Q Q
 
 |-------------|------------|---------------||
 |-------------|------------|----5--4-------||
 |-2----5--2-5-|---------3--|-2--------5----||
 |-------------|-0----------|---------------||

Interlude
Q Q Q E E Q Q Q Q Q Q Q E E Q Q Q Q
 
 |--------------|-------------|--------------|-------------|
 |--------------|-------------|--------------|-------------|
 |-7--------5-5-|-7--------5--|-7--------5-5-|-7--------5--|
 |--------------|-------------|--------------|-------------|

E S S E S S +S E S S S E E S S E S S +S E S E E
 
 |---------------------------|-------------------------|
 |---------------------------|-------------------------|
 |-7-7-7-7-7-7-(7)-5-5-5-5-5-|-7-7-7-7-7-7-(7)-5-5-5-5-|
 |---------------------------|-------------------------|

E S S E S S +S E S S S E E S S E S S +S E S S S S S
 
 |---------------------------|--------------------------------|
 |---------------------------|--------------------------------|
 |---7-7-7-7-7-(7)-5-5-5-5-5-|-7-7-7-7-7-7-(7)-5-5-5-5-5-5----|
 |-0-------------------------|--------------------------------|

S S S S S S S S S S S S S S S S S S S S S S S S S S S S S S S S
 
 ||----------------------------------|----------------------------------|
 ||o---------------------------------|----------------------------------|
 ||o-7-7-7-7-7-7-7-7-7-7-7-7-7-7-7-7-|-5-5-5-5-5-5-5-5-5-5-5-5-5-5-5-5--|
 ||----------------------------------|----------------------------------|

S S S S S S S S S S S S S S S S E S S E E +E E E E
 
 |---------------------------------|------------------------||
 |---------------------------------|----------9-(9)--------o||
 |---------------------------------|-----/9---------9-10-9-o||
 |-8-8-8-8-8-8-8-8-8-8-8-8-8-8-8-8-|-7----------------------||

Last Solo
[E] [E] [E] [E] [E] [E] [E] [E] [E] [E] [E] [E] [E] [E] [E] [E]  
 
 |-----------------|------------------|
 |-----9-----9---9-|-----11-----------|
 |-7-7---7-7---7---|-9-9----9-9-9-9-9-|
 |-----------------|------------------|

E E E E E E E E E. S +E E +E E Q
 
 |-------------------------|----------------------------|
 |-------12-------12-------|----------------------------|
 |-10-10----10-10----10-10-|-/14--12-(12)-10-(10)-12-9--|
 |-------------------------|----------------------------|

Q=60
E E E E E E E E E E E E E E E E W
 
 |-----------------|------------------|-------||
 |-----9-----9---9-|-----11-----------|-------||
 |-7-7---7-7---7---|-9-9----9-9-9-9-9-|-10----||
 |-----------------|------------------|-------||

Free Play
Free Tempo Q=150
TP TP TP
W +W +W
 
 |----------|------------|------------|
 |----------|------------|------------|
 |-2--------|-(2)--------|-(2)--------|
 |----------|------------|------------|

TP
+W +W +W +W
 
 |------------|------------|------------|--------|
 |------------|------------|------------|--------|
 |-(2)--------|-(2)--------|-(2)--------|-(2)----|
 |------------|------------|------------|--------|

Outro
E S S E S S E S S E S S E S S E E +E S S S E.
 
 |-------------------------|---------------------------*|
 |-------------------------|---------------------------*|
 |-7-7-7-7-7-7-7-7-7-7-7-7-|-7-------------10-10-9h10\-*|
 |-------------------------|---7-7-7-6-(6)-------------*|

Duration Legend
 
 ---------------
 W - whole; H - half; Q - quarter; E - 8th; S - 16th; T - 32nd; X - 64th; a - acciaccatura

+ - note tied to previous; . - note dotted; .. - note double dotted
Uncapitalized letters represent notes that are staccato (1/2 duration)
Irregular groupings are notated above the duration line
Duration letters will always appear directly above the note/fret number it represents the
duration for. Duration letters with no fret number below them represent rests. Multi-
bar rests are notated in the form Wxn, where n is the number of bars to rest for. Low
melody durations appear below the staff
Tablature Legend
 
 ----------------

h - hammer-on
p - pull-off
b - bend
pb - pre-bend
r - bend release (if no number after the r, then release immediately)
/\ - slide into or out of (from/to "nowhere")
s - legato slide
S - shift slide
- natural harmonic
(n) - artificial harmonic
n(n) - tapped harmonic
~ - vibrato
tr - trill
T - tap
TP - trem. picking
PM - palm muting
\n/ - tremolo bar dip; n = amount to dip
\n - tremolo bar down
n/ - tremolo bar up
/n\ - tremolo bar inverted dip
= - hold bend; also acts as connecting device for hammers/pulls
- volume swell (louder/softer)
x - on rhythm slash represents muted slash
o - on rhythm slash represents single note slash
Misc Legend
 
 -----------

| - bar
|| - double bar
||o - repeat start
o|| - repeat end
*| - double bar (ending)
: - bar (freetime)
$ - Segno
& - Coda
Tempo markers - = BPM(8/16=s8/s16), where s8 = swing 8ths, s16 = swing 16ths

Important: The song above is NOT stored on the Chordie server. The original song is hosted at www.guitartabs.cc. Chordie works as a search engine and provides on-the-fly formatting. Chordie does not index songs against artists'/composers' will. To remove this song please click here.

Text color:
Chord color:
Chord grids: 
Font size:    
Page size: 

E
Rate #1 of 1 versions

Jango Player

Login - add to songbook

SHARE PAGE  



You need to log in to post comments