Guitar Tabs, Chords and Lyrics
Server problems seems to be fixed. Chordie has been experiencing problems with songs disappearing. These issues now seems to be fixed, but still verifying the fix. If you find anything strange, please email admin@chordie.com.


March of Time   Helloween

 
 ||-----------|-----------|----------|-----------|
 ||o----------|-----------|-0--------|-0----2----|
 ||o----------|-----------|----------|-----------|
 ||--2--------|-2----0----|----------|-----------|

 


 


 1.


 W H H W q q q q


 

 
 |----------|-----------|----------|---------------||
 |----------|-----------|-2--------|--------------o||
 |-0--------|-0----0----|----------|--------------o||
 |----------|-----------|----------|-0--0--0--0----||

 


 


 2.


 W H H W q q q q


 

 
 |----------|-----------|----------|--------------||
 |----------|-----------|-2--------|--------------||
 |-0--------|-0---------|----------|--------------||
 |----------|------0----|----------|-0--0--0--0---||

 


 


 W +W S S S S S S S S S S S S S S S S


 

 
 |----------|------------||---------------------------------|
 |----------|------------||---------------------------------|
 |----------|------------||-7-7-7-7-7-7-7-7-7-7-7-7-7-7-7-7-|
 |-2--------|-(2)--------||---------------------------------|

 


 


 S S S S S S S S S S S S S S S S


 

 
 |-----------------------------------|
 |-----------------------------------|
 |-7-7-7-7-7-7-7-7-7-7-7-7-7-7-7-7---|
 |-----------------------------------|

 


 


 S S S S S S S S S S S S S S S S S S S S S S S S S S E E E


 

 
 |---------------------------------|---------------------------|
 |---------------------------------|---------------------------|
 |-3-3-3-3-3-3-3-3-3-3-3-3-3-3-3-3-|-3-3-3-3-3-3-3-3-3-3-3-3-5-|
 |---------------------------------|---------------------------|

 


 


 S S S S S S S S S S S S S S S S S S S S S S S S S S S S S S S S


 

 
 |---------------------------------|------------------------------------|
 |---------------------------------|------------------------------------|
 |-7-7-7-7-7-7-7-7-7-7-7-7-7-7-7-7-|-7-7-7-7-7-7-7-7-7-7-7-7-7-7-7-7----|
 |---------------------------------|------------------------------------|

 


 


 S S S S S S S S S S S S S S S S S S S S S S S S S S S S S S S S


 

 
 |---------------------------------|---------------------------------||
 |---------------------------------|---------------------------------||
 |-3-3-3-3-3-3-3-3-3-3-3-3-3-3-3-3-|-5-5-5-5-5-5-5-5-5-5-5-5-5-5-5-5-||
 |---------------------------------|---------------------------------||

 


 


 E E Q H Wx2 H Q Q


 

 
 |-------------|------------|----------------||
 |-------------|------------|----------------||
 |-------------|------------|----------------||
 |-0-----------|------------|---------12\----||

 


 


 Verses


 $


 S S S S S S S S S S S S S S E S S S S S S S S S S E S S E


 

 
 |-------------------------------|-----------------------------|
 |-------------------------------|---------------------5-5-7---|
 |-5-7-7-7-7-7-5-7-7-7-7-7-----5-|-5-7-7-7-7-7-5-7-7-7-------5-|
 |-------------------------5-7---|-----------------------------|

 


 


 S S S S S S S S S S S S S S E S S S S S S S S S S E S S E


 

 
 |-------------------------------|-------------------------------|
 |-------------------------------|---------------------5-5-7-----|
 |-5-7-7-7-7-7-5-7-7-7-7-7-----5-|-5-7-7-7-7-7-5-7-7-7-------5---|
 |-------------------------5-7---|-------------------------------|

 


 


 E S S S S E S S S S E S S E S S S S E S S S S E S S


 

 
 |---------------------------|---------------------------|
 |---------------------------|---------------------------|
 |-2-3-3-3-3-2-3-3-3-3-2-3-3-|-2-3-3-3-3-2-3-3-3-3-2-3-3-|
 |---------------------------|---------------------------|

 


 


 S S S S S S S S S S S S S S E S S S S S S S S S E. S E.


 

 
 |-------------------------------|-----------------------------|
 |-------------------------------|-----------------------------|
 |-5-7-7-7-7-7-5-7-7-7-7-7-----5-|-5-7-7-7-7-7-7-7---4----5----|
 |-------------------------5-7---|-----------------------------|

 


 


 S S S S S S S S S S S S S S E S S S S S S S S S S E S S E


 

 
 |-------------------------------|-----------------------------|
 |-------------------------------|---------------------5-5-7---|
 |-5-7-7-7-7-7-5-7-7-7-7-7-----5-|-5-7-7-7-7-7-5-7-7-7-------5-|
 |-------------------------5-7---|-----------------------------|

 


 


 S S S S S S S S S S S S S S E S S S S S S S S S S E S S E


 

 
 |-------------------------------|-------------------------------|
 |-------------------------------|---------------------5-5-7-----|
 |-5-7-7-7-7-7-5-7-7-7-7-7-----5-|-5-7-7-7-7-7-5-7-7-7-------5---|
 |-------------------------5-7---|-------------------------------|

 


 


 E S S S S E S S S S E S S E S S S S E S S S S E S S


 

 
 |---------------------------|---------------------------|
 |---------------------------|---------------------------|
 |-2-3-3-3-3-2-3-3-3-3-2-3-3-|-2-3-3-3-3-2-3-3-3-3-2-3-3-|
 |---------------------------|---------------------------|

 


 


 S S S S S S S S S S S S S S E S S S S S S S S S S S S S S E


 

 
 |-------------------------------|----------------------------------||
 |-------------------------------|----------------------------------||
 |-5-7-7-7-7-7-5-7-7-7-7-7-----5-|-5-7-7-7-7-7-5-7-7-7-7-7-7-7-7----||
 |-------------------------5-7---|----------------------------------||

 


 


 Pre-Chorus


 Q. S S Q. E E E E E E E E E Q. S S Q. E E E E E E E E E


 

 
 |-----------------|-----------------|-----------------|------------------|
 |-----------------|-----------------|----------4------|------------------|
 |-4----4-4-4----2-|-4-5-4-2-4-2-0---|-----------------|------------------|
 |-----------------|---------------4-|-2----2-2------2-|-2-1-2-4-2-4-2-0--|

 


 


 H.. E E E E E E E E E E E E E E E E E


 

 
 |-------------|-----------------|-----------------|
 |-------------|-----------------|-----------------|
 |-4---------2-|-4-5-4-2-4-4-4-4-|-5-5-5-5-5-5-5-5-|
 |-------------|-----------------|-----------------|

 


 


 E E E E E E E E E E Q Q Q


 

 
 |-----------------|----------------||
 |-----------------|----------------||
 |-----------------|----------------||
 |-0-0-0-0-0-0-0-0-|-0---5--4--0----||


Important: The song above is NOT stored on the Chordie server. The original song is hosted at www.guitartabs.cc. Chordie works as a search engine and provides on-the-fly formatting. Chordie does not index songs against artists'/composers' will. To remove this song please click here.

This song is displayed as text-only. Transposing and tuning is only available for chordpro-songs.
Rate #1 of 1 versions

Jango Player

Login - add to songbook

SHARE PAGE  




You need to log in to post comments