Guitar Tabs, Chords and Lyrics
Major upgrade!! After one year development the new version of Chordie is now online! Please give feedback.


Gundah  Hujan

Hujan - Gundah
Verse*
Gundah gulana...
[Am] [d] [sus2]  
 
 e|-------7--------------------------7-----------------------------|
 B|-------7--------------------------7-----------------------------|
 G|-------7--------------------------5-----------------------------|
 D|-------5--------------------------5-----------------------------|
 A|-------5--------------------------7-----------------------------|
 E|-------7--------------------------7-----------------------------|

Pre chorus*
Sesekali ku buka mata...
f# maj D# maj7 f# maj E sus2sus4 E7
 
 e|------9-----------6------------9-------------7--------------- 7-------------|
 B|------11----------8------------11------------7----------------9-------------|
 G|------10----------7------------10------------9----------------7-------------|
 D|------11----------8------------11------------7----------------9-------------|
 A|------9-----------6------------9-------------9----------------7-------------|
 E|---------------------------------------------7----------------7-------------|

Chorus*
biar terusku belari dan lari...
F maj d maj7 , C maj7 , A 7sus4 , F maj7 ,
 
 e|--1----------5----------3---------5-------------8---------------|
 B|--1----------7----------5---------5-------------10--------------|
 G|--2----------6----------4---------7-------------9---------------|
 D|--3----------7----------5---------5-------------10--------------|
 A|--3----------5----------3---------7-------------8---------------|
 E|--1----------5----------3---------5-----------------------------|

Break*
takkan pudar..
d maj7 , C maj7 , d maj7 , B maj7 , E 7
 
 e|-----------5---------3--------5--------2----------7-------------|
 B|-----------7---------5--------7--------2----------9-------------|
 G|-----------6---------4--------6--------3----------7-------------|
 D|-----------7---------5--------7--------4----------9-------------|
 A|-----------5---------3--------5--------2----------7-------------|
 E|-----------5---------3--------5--------2----------7-------------|

tabbed by Pali.
fadhlidawek@yahoo.com

Important: The song above is NOT stored on the Chordie server. The original song is hosted at www.guitartabs.cc. Chordie works as a search engine and provides on-the-fly formatting. Chordie does not index songs against artists'/composers' will. To remove this song please click here.

Text color:
Chord color:
Chord grids: 
Font size:    
Page size: 

Am
Rate #1 of 5 versions

Jango Player

Login - add to songbook

SHARE PAGE  




You need to log in to post comments