Guitar Tabs, Chords and Lyrics
Server problems seems to be fixed. Chordie has been experiencing problems with songs disappearing. These issues now seems to be fixed, but still verifying the fix. If you find anything strange, please email admin@chordie.com.


23A, Swan Hill  Ian Hunter

 
 -----------------------------------------------------------------------------

23A Swan Hill - Ian Hunter
 
 -----------------------------------------------------------------------------

Tabbed By: Du'h...Me of course!
By: I.Hunter
Album: The Artful Dodger
Awesomness: High!!!
23A Swan Hill:
Acoustic Uses : While El Uses:
[C] [D] [C5] [D5]  
 
 e|----2---------------------------------------|
 B|-1--3---------------------------------------|
 G|-0--2-----------------------5-7-------------|
 D|-2--0-----------------------5-7-------------|
 A|-3--------------------------3-5-------------|
 E|--------------------------------------------|

Intro:
Noodle On a D.
Intro Riff:
[G] [C] [D]  
 
 e|----------------------------------|
 B|-3---1---------------3------------|
 G|-0---0---0---2---0---0------------|
 D|-0---0---0---0---0---0------------|
 A|-2---2---2---2---2---2------------|
 E|-3---3---3---3---3---3------------|

(Downstrokes only in the verse)
[C]Wrote this poem[D]
[D]called "the floods roll o[C]n"[D]
[D]he said this ain't your[C]s, [D]
[D]where'd you get it fr[C]om?[D]
[D]you must have stole it from a b[C]ook,
oh yeah[D]
[D]you must have stole it from a bo[C]ok.[D]
[D]'cause you ain't [C]frail[D]
[D]you ain't beau[C]tiful,
[D]and I don't [C]fancy you
[D]at all.
[G] [C] [D]  
 
 e|----------------------------------|
 B|-3---1---------------3------------|
 G|-0---0---0---2---0---0------------|
 D|-0---0---0---0---0---0------------|
 A|-2---2---2---2---2---2------------|
 E|-3---3---3---3---3---3------------|

[G]You'd be a ruin
if looks could kill
[C]23 A, Swan H[D]ill
Stiff with rage
screaming at the sky
innocence breaks
says she wants to die
I'm assuming I'm alive
oh yeah
I'm assuming I'm alive
she pushes and she pulls
my legs go weak
in fascinating terror
[G]The whole world moves
[G]and I'm standing still
[C]in 23A Swan H[D]ill
El guitar During G D part in the verse beneath.
 
 E|-0-3-4-5-4-3-0------------|

[E]and it's always raining[G] [D]
[E]and you never ask why[G] [D]
[E]you never give yourself a shot[G] [D]
[G]you just sit and watch yo[C]ur life go b[D]y
Acoustic: G C D
El Guitar:
 
 e|----------------------------------------|
 B|----------------------------------------|
 G|-------------5--------------7-----------|
 D|-------------5--------------7-----------|
 A|-------------5--------------7-----------|
 E|-7-6-5-0-5-7----7-6-5-0-5-7-------------|

Last time do a : E|7-6-5-12|
Kicking stones
at a still life
want to pull it down
slash it slash it
there must be some way out here
there must be some way out here
this ain't right
there must be more to life
than breaking and entering
doing people's heads in
[G]alcohol, nicotine
[G]thinking what I might ha[G]ve been
[G] [C] [D]  
 
 e|----------------------------------|
 B|-3---1---------------3------------|
 G|-0---0---0---2---0---0------------|
 D|-0---0---0---0---0---0------------|
 A|-2---2---2---2---2---2------------|
 E|-3---3---3---3---3---3------------|

[G]You would be a ruin
[G]if looks could kill
[C]23 A, Swan H[D]ill
And the whole world moves
and I'm standing still
in 23 A, Swan Hill
[G]and I will
[G]and I will
[G]and I will
[G]and I will
[C]in 23 A, Swan H[D]ill
 
 --------------------

That's It for today.
I don't know what I'll do next time.
Altough i do have some of "Knees of my heart" and "Jerkin' Crokus".
We'll see.
:-)

Important: The song above is NOT stored on the Chordie server. The original song is hosted at www.guitartabs.cc. Chordie works as a search engine and provides on-the-fly formatting. Chordie does not index songs against artists'/composers' will. To remove this song please click here.

Text color:
Chord color:
Chord grids: 
Font size:    
Page size: 

C C5 D D5 E G
Rate #1 of 2 versions

Login - add to songbook

SHARE PAGE  



You need to log in to post comments