Guitar Tabs, Chords and Lyrics
Major upgrade!! After one year development the new version of Chordie is now online! Please give feedback.


Live in a Hiding Place  Idlewild

Tabbed by: Chris Lowry
chrislowry55@hotmail.com
Intro:
[G] [C] [D]  
 
 e------------------------------------------------------
 B------------------------------------------------------
 G---------0-------0----------0-----0---0---------------
 D-------0-------0----------7-----7---------------------
 A-------------3------2---5-----5-----5-----------------
 E-----3------------------------------------------------

Verse 1:
[G] [C] [D]  
 
 e------------------------------------------------------
 B------------------------------------------------------
 G---------0-------0----------0-----0---0---------------
 D-------0-------0----------7-----7---------------------
 A-------------3------2---5-----5-----5-----------------
 E-----3------------------------------------------------

Chorus:
 
 e------------------------------------------------------
 B------------------------------------------------------
 G----------0--------0---0------0------0---------------
 D--------5--------7----------9------0------------------
 A------3--------5-----5----7--------------------------
 E---------------------------------3--------------------
 e------------------------------------------------------
 B------------------------------------------------------
 G----------0--------0---0------0-------0-----0---------
 D--------5--------7----------9-------5-----------------
 A------3--------5-----5----7-------3------3------------
 E------------------------------------------------------ 

[G] [C] [D]  
 
 e------------------------------------------------------
 B------------------------------------------------------
 G---------0-------0----------0-----0---0---------------
 D-------0-------0----------7-----7---------------------
 A-------------3------2---5-----5-----5-----------------
 E-----3------------------------------------------------

Verse 2:
[G] [C] [D]  
 
 e------------------------------------------------------
 B------------------------------------------------------
 G---------0-------0----------0-----0---0---------------
 D-------0-------0----------7-----7---------------------
 A-------------3------2---5-----5-----5-----------------
 E-----3------------------------------------------------

Chorus:
 
 e-----------------------------------------------------
 B-----------------------------------------------------
 G----------0--------0---0------0------0---------------
 D-------5--------7----------9------0------------------
 A------3--------5-----5----7--------------------------
 E--------------------------------3--------------------
 e------------------------------------------------------
 B------------------------------------------------------
 G----------0--------0---0------0-------0-----0---------
 D--------5--------7----------9-------5-----------------
 A------3--------5-----5----7-------3------3------------
 E------------------------------------------------------

x2
[G] [C] [D]  
 
 e------------------------------------------------------
 B------------------------------------------------------
 G---------0-------0----------0-----0---0---------------
 D-------0-------0----------7-----7---------------------
 A-------------3------2---5-----5-----5-----------------
 E-----3------------------------------------------------ x2


Important: The song above is NOT stored on the Chordie server. The original song is hosted at www.guitartabs.cc. Chordie works as a search engine and provides on-the-fly formatting. Chordie does not index songs against artists'/composers' will. To remove this song please click here.

Text color:
Chord color:
Chord grids: 
Font size:    
Page size: 

C D G
Rate #2 of 7 versions

Login - add to songbook

SHARE PAGE  




You need to log in to post comments