Guitar Tabs, Chords and Lyrics
Server problems seems to be fixed. Chordie has been experiencing problems with songs disappearing. These issues now seems to be fixed, but still verifying the fix. If you find anything strange, please email admin@chordie.com.


When I Speak   Impending Doom

 
 [Riff 1] - [00:00] - [00:22]---------| 6x
 - -----------------------------------|
 - -----------------------------------|
 - -----------------------------------|
 - ------------------------------3----|
 - -2-----1--------2-1-----------2----|
 - -2-----1----4---2-1-----------1----|
 - ---1111--11---002-1-2141112111-----|

 


 PM .... .. .. ..........


 


 

 
 ----------------------------------------------------------------------------

 


 


 [Riff 2, Guitar 1 & 2] - [00:22] - [00:24]


 

 
 - -----------------|
 - -----------------|
 - -----------------|
 - -----------------|
 - -1-----1-----1---|
 - -1-2-1-1-2-1-1---|
 - ---2-1---2-1-----|

 


 PM ... ...


 [-]  

 
 - -----------------|
 - -----------------|
 - -----------------|
 - -----------------|
 - -1-----1-----1---|
 - -1-----1-----1---|
 - -----------------|
 ----------------------------------------------------------------------------
 [Riff 3] - [00:24] - [00:31]--------| 2x
 - ----------------------------------|
 - ----------------------------------|
 - ----------------------------------|
 - ----------------------------------|
 - -1-----1-----1---1-----1-----1/2--|
 - -1-2-1-1-2-1-1-2-1-2-1-1-2-1-1/2--|
 - ---2-1---2-1---2---2-1---2-1------|

 


 PM ... ... . ... ...


 


 

 
 [Riff 4] - [00:31] - [00:38]--------| 2x
 - ----------------------------------|
 - ----------------------------------|
 - ----------------------------------|
 - ----------------------------------|
 - ----------------------------------|
 - -1-----1-----1---1-----1-----1-2--|
 - ---2-1---2-1---2---2-1---2-1------|

 


 AP ...............................


 


 

 
 ----------------------------------------------------------------------------

 


 


 [Riff 5, Guitar 1 & 2] - [00:38] - [00:42]


 

 
 - ---------------------------------|
 - ---------------------------------|
 - -5-------8--7--5-8---------------|
 - -x-------x--x--x-x---------------|
 - -3-------6--5--3-6---------------|
 - ---------------------------------|
 - ---------------------------------|

 


 [-]  

 
 - ---------------------------------|
 - ---------------------------------|
 - -5-------8--7--5-4---------------|
 - -x-------x--x--x-x---------------|
 - -3-------6--5--3-2---------------|
 - ---------------------------------|
 - ---------------------------------|
 ----------------------------------------------------------------------------
 [Riff 6] - [00:42] - [00:57]-----------------------------------------| 2x
 - -------------------------------------------------------------------|
 - -------------------------------------------------------------------|
 - -------------------------------------------------------------------|
 - -------------------------------------------------------------------|
 - -------------------------------------------------------------------|
 - -------------------------------------------------------------------|
 - -3-------6--5--3-2----------------3-------6--5--3-6----------------|

 


 AP ................................................................


 


 

 
 ----------------------------------------------------------------------------

 


 


 [Riff 5, Guitar 1 & 2] - [00:57] - [01:01]


 [Riff 1] - [01:01] - [01:15] - 4x


 


 

 
 ----------------------------------------------------------------------------

 


 


 [Riff 7, Guitar 1 & 2] - [01:15] - [01:17]


 

 
 - -----------------|
 - -----------------|
 - -----------------|
 - -----------------|
 - -----1---2---1-2-|
 - -----1---2---1-2-|
 - -1111--11--11----|

 


 PM .... .. ..


 [-]  

 
 - -----------------|
 - -----------------|
 - -----------------|
 - -----------------|
 - -1-----2-----1-2-|
 - -1-----2-----1-2-|
 - -1---------------|
 ----------------------------------------------------------------------------
 [Riff 8] - [01:17] - [01:25]----| 4x
 - ------------------------------|
 - ------------------------------|
 - ------------------------------|
 - ------------------------------|
 - -----1---2---1-2--------------|
 - -----1---2---1-2--------------|
 - -1111--11--11-----------------|

 


 PM .... .. ..


 


 

 
 [Riff 9] - [01:25] - [01:32]----| 4x
 - ------------------------------|
 - ------------------------------|
 - ------------------------------|
 - ------------------------------|
 - ------------------------------|
 - -----1---2--------------------|
 - -1111--11--111-2--------------|

 


 PM .... .. ..


 


 

 
 ----------------------------------------------------------------------------
 [Riff 10] - [01:32] - [01:39]-------| 2x
 - ----------------------------------|
 - ----------------------------------|
 - ----------------------------------|
 - ----------------------------------|
 - -1111--1111--1---1111--1111--1-2--|
 - -0000--0000--1---0000--0000--1-2--|
 - ----------------------------------|

 


 PM .......... ..........


 


 [Riff 11] - [01:39] - [01:47]


 

 
 - ------------------|
 - ------------------|
 - ------------------|
 - ------------------|
 - -0~---------------|
 - -0~---------------|
 - -------------2pbr-|
 [Riff 12, Guitar 1 & 2] - [01:47] - [02:01]-----------------------| 2x
 - ----------------------------------------------------------------|
 - ----------------------------------------------------------------|
 - ----------------------------------------------------------------|
 - ----------------------------------------------------------------|
 - -1-1---1-1---1-1-----------------1-1---1-1---1-1----------------|
 - -0-0---0-0---0-0-----------------0-0---0-0---0-0----------------|
 - ----------------------------------------------------------------|

 


 PM .............................................................


 [-]  

 
 - ---------------------------------------------------------------|
 - ---------------------------------------------------------------|
 - ---------------------------------------------------------------|
 - ---------------------------------------------------------------|
 - -1-1---1-1---1-1---6-5-----------1-1---1-1---1-1---------------|
 - -0-0---0-0---0-0-------6-5-------0-0---0-0---0-0---------------|
 - ---------------------------6-5-6-------------------------------|

 


 PM .............................................................


 AP .............


 


 [Riff 13, Guitar 1 & 2] - [02:01] - [02:19]


 

 
 - -------------------------------------------------------------------|
 - -------------------------------------------------------------------|
 - -------------------------------------------------------------------|
 - -------------------------------------------------------------------|
 - -0-0---0-0---0000-0-0---0-0---1/2-0-0---0-0---0000-0-0---0-0---0---|
 - -0-0---0-0---0000-0-0---0-0---1/2-0-0---0-0---0000-0-0---0-0---0---|
 - -------------------------------------------------------------------|

 


 PM ............................ ............................


 [-]  

 
 - -------------------------------------------------------------------|
 - -------------------------------------------------------------------|
 - -------------------------------------------------------------------|
 - -------------------------------------------------------------------|
 - -0~---------------------------1/2-0~---------------------------0---|
 - -0~---------------------------1/2-0~---------------------------0---|
 - -------------------------------------------------------------------|
 [Riff 14] - [02:19] - [02:24]-----------------------------------------| 2x
 - --------------------------------------------------------------------|
 - --------------------------------------------------------------------|
 - --------------------------------------------------------------------|
 - --------------------------------------------------------------------|
 - -1-1---1-1---1111-1-1---1-1---1/2-1-1---1-1---1111-1-1---1-1---2\1--|
 - -0-0---0-0---0000-0-0---0-0---1/2-0-0---0-0---0000-0-0---0-0---2\1--|
 - --------------------------------------------------------------------|

 


 PM ............................ ............................


 


 

 
 [Riff 15] - [02:24] - [02:38]--------| 4x
 - -----------------------------------|
 - -----------------------------------|
 - -----------------------------------|
 - -----------------------------------|
 - -1-1---1-1---1111-1-1---1-1--------|
 - -0-0---0-0---0000-0-0---0-0--------|
 - -----------------------------------|

 


 PM ................................


 


 

 
 ----------------------------------------------------------------------------

 


 


 [Riff 16, Guitar 1 & 2] - [02:38] - [02:40]


 

 
 - -----------------|
 - -----------------|
 - -----------------|
 - -----------------|
 - -----1---2---1-2-|
 - -----1---2---1-2-|
 - -1111--11--11----|

 


 PM .... .. ..


 [-]  

 
 - -----------------|
 - -----------------|
 - -----------------|
 - -----------------|
 - -----------------|
 - -----------------|
 - -----------------|
 ----------------------------------------------------------------------------
 [Riff 8] - [02:40] - [02:48]----| 4x
 [Riff 9] - [02:48] - [03:02]----| 8x
 ----------------------------------------------------------------------------

 


 


 [Riff 17, Guitar 1 & 2] - [03:02] - [03:10]


 

 
 - -----------------------------------------------------------------|
 - -----------------------------------------------------------------|
 - -5-------8--7--5-4---------------5-------8--7--5-8---------------|
 - -x-------x--x--x-x---------------x-------x--x--x-x---------------|
 - -3-------6--5--3-2---------------3-------6--5--3-6---------------|
 - -----------------------------------------------------------------|
 - -----------------------------------------------------------------|

 


 [-]  

 
 - -----------------------------------------------------------------|
 - -----------------------------------------------------------------|
 - -5-------8--7--5-4---------------5-------8--7--5-4---------------|
 - -x-------x--x--x-x---------------x-------x--x--x-x---------------|
 - -3-------6--5--3-2---------------3-------6--5--3-2---------------|
 - -----------------------------------------------------------------|
 - -----------------------------------------------------------------|
 ----------------------------------------------------------------------------
 [Riff 18] - [03:10] - [03:25]----------------------------------------| 2x
 - -------------------------------------------------------------------|
 - -------------------------------------------------------------------|
 - -------------------------------------------------------------------|
 - -------------------------------------------------------------------|
 - -------------------------------------------------------------------|
 - -------------------------------------------------------------------|
 - -3-------330330336-------660660665-------550550553-------2---------|

 


 AP ................................................................


 


 

 
 ----------------------------------------------------------------------------

 


 


 [Riff 17, Guitar 1 & 2] - [03:25] - [03:39] - 2x


 


 

 
 ----------------------------------------------------------------------------

 


 


 [Riff 18] - [03:39] - [03:52]


 

 
 - ---------|
 - -5~------|
 - -6~------|
 - -7~------|
 - -7~------|
 - -0~------|
 - -0~------|
 ----------------------------------------------------------------------------

 


 


 [Alternate Arrangements For 6 String] 


 


 [Riff 5] 


 

 
 - -----------------------------|
 - -----------------------------|
 - -10------13--12--10-13-------|
 - -x-------x---x---x--x--------|
 - -8-------11--10--8--11-------|
 - -----------------------------|

 


 [-]  

 
 - -----------------------------|
 - -----------------------------|
 - -10------13--12--10-9--------|
 - -x-------x---x---x--x--------|
 - -8-------11--10--8--7--------|
 - -----------------------------|

 


 


 [Riff 19] 


 

 
 - -5------|
 - -7------|
 - -7------|
 - -7------|
 - -5------|
 - -0------|
 ----------------------------------------------------------------------------


Important: The song above is NOT stored on the Chordie server. The original song is hosted at www.guitartabs.cc. Chordie works as a search engine and provides on-the-fly formatting. Chordie does not index songs against artists'/composers' will. To remove this song please click here.

This song is displayed as text-only. Transposing and tuning is only available for chordpro-songs.
Rate #1 of 2 versions

Jango Player

Login - add to songbook

SHARE PAGE  



You need to log in to post comments