Guitar Tabs, Chords and Lyrics
Server problems seems to be fixed. Chordie has been experiencing problems with songs disappearing. These issues now seems to be fixed, but still verifying the fix. If you find anything strange, please email admin@chordie.com.


Vanishing Light   In Flames

 
 |------------------------------|-----------------------------|
 |-----------10---------10h==11-|-11p==10---------------------|
 |------------------------------|------------10------(10)S==x-|
 |-10s12-----------12-----------|-----------------------------|
 |------------------------------|-----------------------------|
 |------------------------------|-----------------------------|

 


 |


 | Gtrs I, II


 

 
 | PM----------| PM---------|

 


 | E S E S E. E E S E E S E S E. E E S E


 

 
 |------------------------------|-----------------------------|
 |------------------------------|-----------------------------|
 |------------------------------|-----------------------------|
 |--0--0-0-0--0-----------------|--3-3--3--3--3---------------|
 |--0--0-0-0--0--0----0----0--0-|--3-3--3--3--3--3-3------3-3-|
 |--0--0-0-0--0--0----0----0--0-|--3-3--3--3--3--3-3------3-3-|

 


 


 a E. E. E H E. E. E Q E. +S


 

 
 |------------------------------|---------------------------|
 |-8s11----10-------------------|---------------------------|
 |---------------10-------------|---------------------------|
 |-------------------10---------|-10------------------------|
 |------------------------------|-----13--12-13--12--(12)\--|
 |------------------------------|---------------------------|

 


 |


 | PM----|


 | E S E S E. E E S E E. E. E Q Q


 

 
 |------------------------------|---------------------------|
 |------------------------------|---------------------------|
 |----3--3--3--3--3-------------|---------------------------|
 |----3--3--3--3--3-----3-3-3-3-|-------------3---2---------|
 |----1--1--1--1--1-----1-1-1-1-|--3---5---0--5---3---------|
 |------------------------------|--3---5---0----------------|

 


 


 Gtr III


 S +S +S E. Q E E E E. E. Q. +E E


 

 
 |-------------------------------------------|-----------------------------|
 |------------------------10---------10h==11-|-11p==10---------------------|
 |-------------------------------------------|------------10------(10)S==x-|
 |-10b12==(10)r(10)s12----------12-----------|-----------------------------|
 |-------------------------------------------|-----------------------------|
 |-------------------------------------------|-----------------------------|

 


 |


 | Gtr IV (Low Volume)


 | ~~~~~~ ~~~


 | Q. Q E E E E. E. H E


 

 
 |----------------------------------------10-|-10--------------------------|
 |------------------------13---------13------|------13---------------------|
 |------------------------------10-----------|------------12-------------x-|
 |-12----------------------------------------|-----------------------------|
 |-------------------------------------------|-----------------------------|
 |-------------------------------------------|-----------------------------|

 


 |


 | Gtrs I, II


 

 
 | PM----------| PM---------|

 


 | E S E S E. E E S E E S E S E. E E S E


 

 
 |-------------------------------------------|-----------------------------|
 |-------------------------------------------|-----------------------------|
 |-------------------------------------------|-----------------------------|
 |--0------------0---0--0--0-----------------|--3-3--3--3--3---------------|
 |--0------------0---0--0--0--0----0----0--0-|--3-3--3--3--3--3-3------3-3-|
 |--0------------0---0--0--0--0----0----0--0-|--3-3--3--3--3--3-3------3-3-|

 


 


 a E. E. E H E. E. E Q Q


 

 
 |-------------------------------|---------------------------------||
 |-8s=11----10-------------------|---------------------------------||
 |----------------10-------------|---------------------------------||
 |--------------------10---------|-10------------------------------||
 |-------------------------------|--------13-----12-13----12-------||
 |-------------------------------|---------------------------------||

 


 |


 

 
 | PM--------------------|

 


 | E. E. E H E E E E E E E E


 

 
 |---/10-------------------------|---------------------------------||
 |----------13-------------------|---------------------------------||
 |----------------12--10---------|---------------------------------||
 |-------------------------------|---------------------------------||
 |-------------------------------|-12--12-----12----12-12-12-------||
 |-------------------------------|---------------------------------||

 


 |


 | PM----|


 | E S E S E. E E S E E. E. E Q S S E


 

 
 |-------------------------------|---------------------------------||
 |-------------------------------|---------------------------------||
 |-----3--3--3--3--3-------------|---------------------------------||
 |-----3--3--3--3--3-----3-3-3-3-|-------------------3-----2-2-2\--||
 |-----1--1--1--1--1-----1-1-1-1-|--3------5------0--5-----3-3-3\--||
 |-------------------------------|--3------5------0----------------||

 


 


 Bridge


 Gtr I


 

 
 PM| PM----| PM| PM| PM----| PM|

 


 E S S S S S S S S S S S S S S E S S S S S S S S S S S S S S


 

 
 |---------------------------------|--------------------------------|
 |---------------------------------|--------------------------------|
 |---------------------------------|--------------------------------|
 |-/3\-------3-----------2-------3-|---------3---------3h5-----2h3--|
 |-/5\-----5-----------4-------5---|-3-----5---------------0-0------|
 |-----0-0-----0-0-0-0-----0-0-----|---0-0-----0-0-0-0--------------|

 


 |


 | Gtr II


 

 
 | PM| PM----| PM| PM| PM----| PM|

 


 | E S S S S S S S S S S S S S S E S S S S S S S S S S S S S S


 

 
 |---------------------------------|--------------------------------|
 |---------------------------------|--------------------------------|
 |---------------------------------|--------------------------------|
 |-/7\-------3-----------2-------3-|-2-------3---------7h8-----5h7--|
 |-/8\-----5-----------4-------5---|-------5---------------0-0------|
 |-----0-0-----0-0-0-0-----0-0-----|---0-0-----0-0-0-0--------------|
 PM| PM----| PM| PM----|

 


 E S S S S S S S S S S S S S S E S S E E E E E E E S E S E H


 

 
 |-------------------------------|-------------------|----------------||
 |-------------------------------|-------------------|----------------||
 |-------------------------------|-------------------|----------------||
 |-3-------3-----------2-------3-|-3---------3-2-----|----------------||
 |-------5-----------4-------5---|---0-0-3-5-1-0-3s5-|-0-x-0-x-0------||
 |---0-0-----0-0-0-0-----0-0-----|---0-0-3-5-----3s5-|-0-x-0-x-0------||

 


 |


 

 
 | PM| PM----| PM| PM----|

 


 | E S S S S S S S S S S S S S S E S S E E E E E E E S E S E H


 

 
 |-------------------------------|-------------------|----------------||
 |-------------------------------|-------------------|----------------||
 |-------------------------------|-------------------|----------------||
 |---------3-----------2-------3-|-----------3-2-----|----------------||
 |-5-----5-----------4-------5---|-5-0-0-3-5-1-0-3s5-|-0-x-0-x-0------||
 |---0-0-----0-0-0-0-----0-0-----|---0-0-3-5-----3s5-|-0-x-0-x-0------||

 


 


 Verse


 Gtrs I, II


 

 
 PM---------| PM---------| PM---------|

 


 E. E. E. E. E E E. E. E. E. E E E. E. E. E. E E E. E. E E. E. E


 

 
 ||------------------|-----------------|-----------------|-----------------|
 ||o-----------------|-----------------|-----------------|-----------------|
 ||--4---------------|-7---------------|-5---------------|-7--7--7-5--5--5-|
 ||--2---------------|-5---------------|-x---------------|-9--9--9-x--x--x-|
 ||o-2--0--0--0--0-0-|-5--0--0--0--0-0-|-7--0--0--0--0-0-|---------7--7--7-|
 ||-----0--0--0--0-0-|----0--0--0--0-0-|----0--0--0--0-0-|-----------------|
 PM---------| PM---------| PM---------|

 


 E. E. E. E. E E E. E. E. E. E E E. E. E. E. E E E. E. E E. E. E


 

 
 |-----------------|-----------------|-----------------|------------------|
 |-----------------|-----------------|-----------------|------------------|
 |-4---------------|-7---------------|-5---------------|-7--7--7-5--5--5--|
 |-2---------------|-5---------------|-x---------------|-9--9--9-x--x--x--|
 |-2--0--0--0--0-0-|-5--0--0--0--0-0-|-7--0--0--0--0-0-|---------7--7--7--|
 |----0--0--0--0-0-|----0--0--0--0-0-|----0--0--0--0-0-|------------------|
 PM------------------------------------|

 


 S e S S e S S S S S S e S S e S S e S Q Q


 

 
 |---------------------------|-------------------|
 |---------------------------|-------------------|
 |---------------------------|-------------5--5--|
 |---------------------------|-------------x--x--|
 |-0-0-0-0-0-0-0-0-0-0-0-0-0-|-0-0-0-0-0---7--7--|
 |-0-0-0-0-0-0-0-0-0-0-0-0-0-|-0-0-0-0-0-0-------|

 


 


 [2/4]  

 
 PM----------------------|

 


 S e S S e S S S S S S e S Q Q Q Q E E E E


 

 
 |---------------------------|--------------||---------||
 |---------------------------|-------------o||---------||
 |---------------------------|-5--5--7---8--||-x-x-x-x-||
 |---------------------------|-x--x--x---x--||-x-x-x-x-||
 |-0-0-0-0-0-0-0-0-0-0-0-0-0-|-7--7--9--10-o||-x-x-x-x-||
 |-0-0-0-0-0-0-0-0-0-0-0-0-0-|--------------||---------||

 


 


 Chorus


 [4/4] Gtr III


 H H H Q E E H.. E


 

 
 |-----------------------|---------------------------|--------------------------|
 |-----------------------|---------------------------|--------------------------|
 |-15---------17---------|-19---------22-----20---19-|-15-------------------17--|
 |--x----------x---------|--x----------x------x----x-|--x--------------------x--|
 |-13---------15---------|-17---------20-----18---17-|-13-------------------15--|
 |-----------------------|---------------------------|--------------------------|

 


 |


 | Gtrs I, II


 | E S E S E S E E S E E S E S E S E E S E E S E S E S E E S E


 

 
 |-----------------------|---------------------------|--------------------------|
 |-----------------------|---------------------------|--------------------------|
 |-----------------------|---------------------------|--------------------------|
 |--5-5-5-5-5--5-5-5-5-5-|--5-5-5-5-5--5-5-5----5--5-|--1---1-1-1-1-1-1-1-1--1--|
 |--5-5-5-5-5--5-5-5-5-5-|--5-5-5-5-5--5-5-5----5--5-|--1---1-1-1-1-1-1-1-1--1--|
 |--5-5-5-5-5--5-5-5-5-5-|--5-5-5-5-5--5-5-5----5--5-|--1---1-1-1-1-1-1-1-1--1--|

 


 


 Q. E H H H


 

 
 |-------------------------|-----------------------|
 |-------------------------|-----------------------|
 |-19--------20-17---------|-15---------17---------|
 |--x---------x--x---------|--x----------x---------|
 |-17--------18-15---------|-13---------15---------|
 |-------------------------|-----------------------|

 


 |


 | E S E S E S E E S E E S E S E S E E S E


 

 
 |-------------------------|-----------------------|
 |-------------------------|-----------------------|
 |--3--3-3-3--3------------|-----------------------|
 |--3--3-3-3--3--3-3-3-3-3-|--5-5-5-5-5--5-5-5-5-5-|
 |--1--1-1-1--1--3-3-3-3-3-|--5-5-5-5-5--5-5-5-5-5-|
 |---------------3-3-3-3-3-|--5-5-5-5-5--5-5-5-5-5-|

 


 


 H Q E E


 

 
 |-----------------------------|
 |-----------------------------|
 |-19---------22-----20---19---|
 |--x----------x------x----x---|
 |-17---------20-----18---17---|
 |-----------------------------|

 


 |


 | E S E S E S E E S E


 

 
 |-----------------------------|
 |-----------------------------|
 |-----------------------------|
 |--5-5-5-5-5--5-5-5----5--5---|
 |--5-5-5-5-5--5-5-5----5--5---|
 |--5-5-5-5-5--5-5-5----5--5---|

 


 


 H.. E Q. E H


 

 
 |-------------------------|------------------------||
 |-------------------------|------------------------||
 |-15-------------------17-|-19--------20-17--------||
 |--x--------------------x-|--x---------x--x--------||
 |-13-------------------15-|-17--------18-15--------||
 |-------------------------|------------------------||

 


 |


 | E S E S E S E E S E E S E S E E. E. E


 

 
 |-------------------------|------------------------||
 |-------------------------|------------------------||
 |-------------------------|--3--3-3-3--3-----------||
 |--1---1-1-1-1-1-1-1-1--1-|--3--3-3-3--3--3--3--3--||
 |--1---1-1-1-1-1-1-1-1--1-|--1--1-1-1--1--5--3--1--||
 |--1---1-1-1-1-1-1-1-1--1-|------------------------||

 


 


 Bridge


 Gtr I


 

 
 PM| PM----| PM| PM| PM----| PM|

 


 E S S S S S S S S S S S S S S E S S S S S S S S S S S S S S


 

 
 |-------------------------------|--------------------------------|
 |-------------------------------|--------------------------------|
 |-------------------------------|--------------------------------|
 |---------3-----------2-------3-|---------3---------3h5-----2h3--|
 |-5-----5-----------4-------5---|-3-----5---------------0-0------|
 |---0-0-----0-0-0-0-----0-0-----|---0-0-----0-0-0-0--------------|

 


 |


 | Gtr II


 

 
 | PM| PM----| PM| PM| PM----| PM|

 


 | E S S S S S S S S S S S S S S E S S S S S S S S S S S S S S


 

 
 |-------------------------------|--------------------------------|
 |-------------------------------|--------------------------------|
 |-------------------------------|--------------------------------|
 |---------3-----------2-------3-|-2-------3---------7h8-----5h7--|
 |-5-----5-----------4-------5---|-------5---------------0-0------|
 |---0-0-----0-0-0-0-----0-0-----|---0-0-----0-0-0-0--------------|

 


 


 Gtrs I, II


 

 
 PM| PM----| PM| PM----|

 


 E S S S S S S S S S S S S S S E S S E E E E E E E S E S E S E S E E


 

 
 |-------------------------------|-------------------|----------------------||
 |-------------------------------|-------------------|----------------------||
 |-------------------------------|-------------------|----------------------||
 |---------3-----------2-------3-|-----------3-2-----|----------------------||
 |-5-----5-----------4-------5---|-5-0-0-3-5-1-0-3s5-|-0-x-0-x-0-x-0-x-0-0--||
 |---0-0-----0-0-0-0-----0-0-----|---0-0-3-5-----3s5-|-0-x-0-x-0-x-0-x-0-0--||

 


 


 Verse


 

 
 PM---------| PM---------| PM---------|

 


 E. E. E. E. E E E. E. E. E. E E E. E. E. E. E E E. E. E E. E. E


 

 
 ||------------------|-----------------|-----------------|-----------------|
 ||o-----------------|-----------------|-----------------|-----------------|
 ||--4---------------|-7---------------|-5---------------|-7--7--7-5--5--5-|
 ||--2---------------|-5---------------|-x---------------|-9--9--9-x--x--x-|
 ||o-2--0--0--0--0-0-|-5--0--0--0--0-0-|-7--0--0--0--0-0-|---------7--7--7-|
 ||-----0--0--0--0-0-|----0--0--0--0-0-|----0--0--0--0-0-|-----------------|
 PM---------| PM---------| PM---------|

 


 E. E. E. E. E E E. E. E. E. E E E. E. E. E. E E E. E. E E. E. E


 

 
 |-----------------|-----------------|-----------------|------------------|
 |-----------------|-----------------|-----------------|------------------|
 |-4---------------|-7---------------|-5---------------|-7--7--7-5--5--5--|
 |-2---------------|-5---------------|-x---------------|-9--9--9-x--x--x--|
 |-2--0--0--0--0-0-|-5--0--0--0--0-0-|-7--0--0--0--0-0-|---------7--7--7--|
 |----0--0--0--0-0-|----0--0--0--0-0-|----0--0--0--0-0-|------------------|
 PM------------------------------------|

 


 S e S S e S S S S S S e S S e S S e S Q Q


 

 
 |---------------------------|-------------------|
 |---------------------------|-------------------|
 |---------------------------|-------------5--5--|
 |---------------------------|-------------x--x--|
 |-0-0-0-0-0-0-0-0-0-0-0-0-0-|-0-0-0-0-0---7--7--|
 |-0-0-0-0-0-0-0-0-0-0-0-0-0-|-0-0-0-0-0-0-------|
 PM----------------------|

 


 S e S S e S S S S S S e S Q Q Q Q


 

 
 |---------------------------|---------------||
 |---------------------------|--------------o||
 |---------------------------|-5--5--7---8---||
 |---------------------------|-x--x--x---x---||
 |-0-0-0-0-0-0-0-0-0-0-0-0-0-|-7--7--9--10--o||
 |-0-0-0-0-0-0-0-0-0-0-0-0-0-|---------------||

 


 


 Chorus


 [4/4] Gtr III


 S S S S S S S S S S S S S S S S


 

 
 |-------------------------------------------------|
 |-------------------------------------------------|
 |-15-15-15-15-15-15-15-15-17-17-17-17-17-17-17-17-|
 |--x--x--x--x--x--x--x--x--x--x--x--x--x--x--x--x-|
 |-13-13-13-13-13-13-13-13-15-15-15-15-15-15-15-15-|
 |-------------------------------------------------|

 


 |


 | Gtrs I, II


 | E S E S E S E E S E


 

 
 |-------------------------------------------------|
 |-------------------------------------------------|
 |-------------------------------------------------|
 |--5-----5--5-----5--5-----5--5-----5-----5--5----|
 |--5-----5--5-----5--5-----5--5-----5-----5--5----|
 |--5-----5--5-----5--5-----5--5-----5-----5--5----|

 


 


 S S S S S S S S S S S S S S S S S S S S S S S S Q E E


 

 
 |-------------------------------------------------|-----------------------------------------|
 |-------------------------------------------------|-----------------------------------------|
 |-19-19-19-19-19-19-19-19-22-22-22-22-20-20-19-19-|-15-15-15-15-15-15-15-15-15-----15---17--|
 |--x--x--x--x--x--x--x--x--x--x--x--x--x--x--x--x-|--x--x--x--x--x--x--x--x--x------x----x--|
 |-17-17-17-17-17-17-17-17-20-20-20-20-18-18-17-17-|-13-13-13-13-13-13-13-13-13-----13---15--|
 |-------------------------------------------------|-----------------------------------------|

 


 |


 | E S E S E S E E S E E S E S E S E E S E


 

 
 |-------------------------------------------------|-----------------------------------------|
 |-------------------------------------------------|-----------------------------------------|
 |-------------------------------------------------|-----------------------------------------|
 |--5-----5--5-----5--5-----5--5-----5-----5--5----|--1-----1--1-----1--1-----1-1-1----1--1--|
 |--5-----5--5-----5--5-----5--5-----5-----5--5----|--1-----1--1-----1--1-----1-1-1----1--1--|
 |--5-----5--5-----5--5-----5--5-----5-----5--5----|--1-----1--1-----1--1-----1-1-1----1--1--|

 


 


 S S S S S S E S S S S S S S S S S S S S S S S S S S S S S S S


 

 
 |----------------------------------------------|-------------------------------------------------|
 |----------------------------------------------|-------------------------------------------------|
 |-19-19-19-19-19-19-20-17-17-17-17-17-17-17-17-|-15-15-15-15-15-15-15-15-17-17-17-17-17-17-17-17-|
 |--x--x--x--x--x--x--x--x--x--x--x--x--x--x--x-|--x--x--x--x--x--x--x--x--x--x--x--x--x--x--x--x-|
 |-17-17-17-17-17-17-18-15-15-15-15-15-15-15-15-|-13-13-13-13-13-13-13-13-15-15-15-15-15-15-15-15-|
 |----------------------------------------------|-------------------------------------------------|

 


 |


 | E S E S E S E E S E E S E S E S E E S E


 

 
 |----------------------------------------------|-------------------------------------------------|
 |----------------------------------------------|-------------------------------------------------|
 |--3-----3--3-----3--3-------------------------|-------------------------------------------------|
 |--3-----3--3-----3--3--3--3-----3-----3--3----|--5-----5--5-----5--5-----5--5-----5-----5--5----|
 |--1-----1--1-----1--1--3--3-----3-----3--3----|--5-----5--5-----5--5-----5--5-----5-----5--5----|
 |-----------------------3--3-----3-----3--3----|--5-----5--5-----5--5-----5--5-----5-----5--5----|

 


 


 S S S S S S S S S S S S S S S S


 

 
 |--------------------------------------------------|
 |--------------------------------------------------|
 |-19-19-19-19-19-19-19-19-22-22-22-22-20-20-19-19--|
 |--x--x--x--x--x--x--x--x--x--x--x--x--x--x--x--x--|
 |-17-17-17-17-17-17-17-17-20-20-20-20-18-18-17-17--|
 |--------------------------------------------------|

 


 |


 | E S E S E S E E S E


 

 
 |--------------------------------------------------|
 |--------------------------------------------------|
 |--------------------------------------------------|
 |--5-----5--5-----5--5-----5--5-----5-----5--5-----|
 |--5-----5--5-----5--5-----5--5-----5-----5--5-----|
 |--5-----5--5-----5--5-----5--5-----5-----5--5-----|

 


 


 S S S S S S S S Q E E


 

 
 |----------------------------------------|
 |----------------------------------------|
 |-15-15-15-15-15-15-15-15-15-----15---17-|
 |--x--x--x--x--x--x--x--x--x------x----x-|
 |-13-13-13-13-13-13-13-13-13-----13---15-|
 |----------------------------------------|

 


 |


 | E S E S E S E E S E


 

 
 |----------------------------------------|
 |----------------------------------------|
 |----------------------------------------|
 |--1-----1--1-----1--1-----1-1-1----1--1-|
 |--1-----1--1-----1--1-----1-1-1----1--1-|
 |--1-----1--1-----1--1-----1-1-1----1--1-|

 


 


 S S S S S S E S S S S S S S S


 

 
 |------------------------------------------------||
 |------------------------------------------------||
 |-19-19-19-19-19-19-20-17--17-17-17--17-17-17-17-||
 |--x--x--x--x--x--x--x--x---x--x--x---x--x--x--x-||
 |-17-17-17-17-17-17-18-15--15-15-15--15-15-15-15-||
 |------------------------------------------------||

 


 |


 | E S E S E E. E. E


 

 
 |------------------------------------------------||
 |------------------------------------------------||
 |--3-----3--3-----3--3---------------------------||
 |--3-----3--3-----3--3--3---------3---------3----||
 |--1-----1--1-----1--1--5---------3---------1----||
 |------------------------------------------------||

 


 


 Bridge


 Gtrs I, II


 

 
 PM| PM--------------| PM| PM----------|

 


 E S S S S S S S S S S S S E E S S S S S S S S E S S S S a


 

 
 |-----------------------------|-------------------------------|
 |-----------------------------|-------------------------------|
 |-----------------------------|-------------------------7p5---|
 |---------3-------------------|---------3-------------------x-|
 |-5-----5-------------------0-|-5-----5-----------------------|
 |---0-0-----0-0-0-0-0-0-0-0-0-|---0-0-----0-0-0-0-0-0-0-------|

 


 


 [2/4]  

 
 PM| PM------------| PM----|

 


 E S S S S S S E S S S S E E S S E E E E E E q Q


 

 
 |---------------------------|-------------------|---------||
 |---------------------------|-------------------|---------||
 |---------------------------|-------------------|---------||
 |---------3-----------------|-----------3-2-----|---------||
 |-5-----5-------------------|-5-0-0-3-5-1-0-3s5-|-0-------||
 |---0-0-----0-0-0-0-0-0-0-0-|---0-0-3-5-----3s5-|-0-------||

 


 


 Guitar Solo


 [4/4] Gtr III


 

 
 ~~~~~ PM| PM| PM| PM| PM| PM| PM------|

 


 E E S S E S S E S S E S S E S S E S S E S S S S


 

 
 |---------------------------------|-------------------------------------|
 |-10-10-------10-------10-------8-|-------8-----------------------------|
 |-------10-10----10-10----10------|---------------9-------9-------------|
 |----------------------------10---|-10-10---10-10---10-10---10-10-10-10-|
 |---------------------------------|-------------------------------------|
 |---------------------------------|-------------------------------------|

 


 |


 | Gtr IV


 | W W


 

 
 |---------------------------------|-------------------------------------|
 |---------------------------------|-------------------------------------|
 |---------------------------------|-------------------------------------|
 |---------------------------------|-------------------------------------|
 |---------------------------------|-------------------------------------|
 |---------------------------------|-------------------------------------|

 


 |


 | Gtrs I, II


 

 
 | PM| PM| PM| PM| PM| PM| PM------|

 


 | E E S S E S S E S S E S S E S S E S S E S S S S


 

 
 |---------------------------------|-------------------------------------|
 |---------------------------------|-------------------------------------|
 |-------------------------------5-|-------5-------5-------5-------------|
 |--3--3--------3--------3-------5-|--5--5-5--5--5-5--5--5-5--5--5--5--5-|
 |--3--3--3--3--3--3--3--3--3--3-3-|--3--3-3--3--3-3--3--3-3--3--3--3--3-|
 |--3--3--3--3--3--3--3--3--3--3---|-------------------------------------|

 


 


 ~~~~~ PM| PM| PM| PM| PM| PM| PM---|


 E E S S E S S E E S S S S S S S S S S S S S S S S S S


 

 
 |------------------------------------|--8-----------------------------------------------|
 |------------------------------------|----11-------11p10-------10p8-------8-------------|
 |-10-10-------10-------10-10---------|-------10-10-------10-10------10-10---10-10-10----|
 |------------------------------------|--------------------------------------------------|
 |-------12-12----12-12---------12-12-|--------------------------------------------------|
 |------------------------------------|--------------------------------------------------|

 


 |


 | PM| PM| PM PM|


 | W S S S S S S S S S S S S S S S S


 

 
 |------------------------------------|--------------------------------------------------|
 |------------------------------------|-10p=8--------8-----------------------------------|
 |------------------------------------|-------10-10----10-10-10-10p9-10-10p9p=7-10-10----|
 |------------------------------------|--------------------------------------------------|
 |------------------------------------|--------------------------------------------------|
 |------------------------------------|--------------------------------------------------|

 


 |


 

 
 | PM| PM| PM| PM-------------|

 


 | E E S S E S S E S S E H E E E E


 

 
 |------------------------------------|--------------------------------------------------|
 |------------------------------------|--------------------------------------------------|
 |--7--7--------7--------7-------7----|--3-----------------------------------------------|
 |--7--7--7--7--7--7--7--7--7-7--7----|--3-----------------------3----3----3-----3-------|
 |--5--5--5--5--5--5--5--5--5-5--5----|--1-----------------------1----1----1-----1-------|
 |------------------------------------|--------------------------------------------------|
 ~~~~~ PM| PM| PM| PM| PM| PM| PM----------

 


 E E S S E S S E S S E S S E S S E S S E S S S S


 

 
 |---------------------------------|-------------------------------------|
 |-10-10-------10-------10-------8-|-------8-----------------------------|
 |-------10-10----10-10----10------|---------------9-------9-------------|
 |----------------------------10---|-10-10---10-10---10-10---10-10-10-10-|
 |---------------------------------|-------------------------------------|
 |---------------------------------|-------------------------------------|

 


 |


 | W W


 

 
 |---------------------------------|-------------------------------------|
 |---------------------------------|-------------------------------------|
 |---------------------------------|-------------------------------------|
 |---------------------------------|-------------------------------------|
 |---------------------------------|-------------------------------------|
 |---------------------------------|-------------------------------------|

 


 |


 

 
 | PM| PM| PM| PM| PM| PM| PM------|

 


 | E E S S E S S E S S E S S E S S E S S E S S S S


 

 
 |---------------------------------|-------------------------------------|
 |---------------------------------|-------------------------------------|
 |-------------------------------5-|-------5-------5-------5-------------|
 |--3--3--------3--------3-------5-|--5--5-5--5--5-5--5--5-5--5--5--5--5-|
 |--3--3--3--3--3--3--3--3--3--3-3-|--3--3-3--3--3-3--3--3-3--3--3--3--3-|
 |--3--3--3--3--3--3--3--3--3--3---|-------------------------------------|
 ----------------------------------------------| PM------| PM| ~~~

 


 S S S S S S S S S S S S S S S S E S S S S E S S Q.


 

 
 |-------------------------------------------------|-------------------------------|
 |-------------------------10-10-10-10-11-11-11-11-|-10----------------------------|
 |-10-10-10-10-12-12-12-12-------------------------|----------------12-------------|
 |-------------------------------------------------|----12-12-12-12----12-12-12----|
 |-------------------------------------------------|-------------------------------|
 |-------------------------------------------------|-------------------------------|

 


 |


 

 
 | PM------------------------------------------| PM------| PM| ~~~

 


 | S S S S S S S S S S S S S S S S E S S S S E S S Q.


 

 
 |-------------------------------------------------|-------------------------------|
 |--------------------------------------8--8--8--8-|-------------------------------|
 |--------------9--9--9--9-10-10-10-10-------------|-10--7--7--7--7--9--7--7-------|
 |-12-12-12-12-------------------------------------|--------------------------8----|
 |-------------------------------------------------|-------------------------------|
 |-------------------------------------------------|-------------------------------|

 


 |


 | PM| PM| PM|


 | E E S S E S S E S S E W


 

 
 |-------------------------------------------------|-------------------------------|
 |-------------------------------------------------|-------------------------------|
 |--7-----7-----------7-----------7-----------7----|--3----------------------------|
 |--7-----7-----7--7--7-----7--7--7-----7--7--7----|--3----------------------------|
 |--5-----5-----5--5--5-----5--5--5-----5--5--5----|--1----------------------------|
 |-------------------------------------------------|-------------------------------|

 


 


 Verse


 Gtrs I, II


 

 
 PM| PM--------------| PM| PM----------|

 


 E S S S S S S S S S S S S E E S S S S S S S S E S S S S a


 

 
 |-----------------------------|-------------------------------|
 |-----------------------------|-------------------------------|
 |-----------------------------|-------------------------7p5---|
 |---------3-------------------|---------3-------------------x-|
 |-5-----5-------------------0-|-5-----5-----------------------|
 |---0-0-----0-0-0-0-0-0-0-0-0-|---0-0-----0-0-0-0-0-0-0-------|
 PM| PM------------| PM----|

 


 E S S S S S S E S S S S E E S S E E E E E E E S E S E S E S E E


 

 
 |---------------------------|-------------------|---------------------|
 |---------------------------|-------------------|---------------------|
 |---------------------------|-------------------|---------------------|
 |---------3-----------------|-----------3-2-----|---------------------|
 |-5-----5-------------------|-5-0-0-3-5-1-0-3s5-|-0-x-0-x-0-x-0-x-0-0-|
 |---0-0-----0-0-0-0-0-0-0-0-|---0-0-3-5-----3s5-|-0-x-0-x-0-x-0-x-0-0-|
 PM------------------------------------|

 


 S e S S e S S S S S S e S S e S S e S Q Q


 

 
 |---------------------------|-------------------|
 |---------------------------|-------------------|
 |---------------------------|-------------5--5--|
 |---------------------------|-------------x--x--|
 |-0-0-0-0-0-0-0-0-0-0-0-0-0-|-0-0-0-0-0---7--7--|
 |-0-0-0-0-0-0-0-0-0-0-0-0-0-|-0-0-0-0-0-0-------|
 PM----------------------|

 


 S e S S e S S S S S S e S Q Q Q Q


 

 
 |---------------------------|--------------||
 |---------------------------|--------------||
 |---------------------------|-5--5--7---8--||
 |---------------------------|-x--x--x---x--||
 |-0-0-0-0-0-0-0-0-0-0-0-0-0-|-7--7--9--10--||
 |-0-0-0-0-0-0-0-0-0-0-0-0-0-|--------------||

 


 


 Chorus


 [4/4] Gtr III


 S S S S S S S S S S S S S S S S


 

 
 |-------------------------------------------------|
 |-------------------------------------------------|
 |-15-15-15-15-15-15-15-15-17-17-17-17-17-17-17-17-|
 |--x--x--x--x--x--x--x--x--x--x--x--x--x--x--x--x-|
 |-13-13-13-13-13-13-13-13-15-15-15-15-15-15-15-15-|
 |-------------------------------------------------|

 


 |


 | Gtrs I, II


 | E S E S E S E E S E


 

 
 |-------------------------------------------------|
 |-------------------------------------------------|
 |-------------------------------------------------|
 |--5-----5--5-----5--5-----5--5-----5-----5--5----|
 |--5-----5--5-----5--5-----5--5-----5-----5--5----|
 |--5-----5--5-----5--5-----5--5-----5-----5--5----|

 


 


 S S S S S S S S S S S S S S S S S S S S S S S S Q E E


 

 
 |-------------------------------------------------|-----------------------------------------|
 |-------------------------------------------------|-----------------------------------------|
 |-19-19-19-19-19-19-19-19-22-22-22-22-20-20-19-19-|-15-15-15-15-15-15-15-15-15-----15---17--|
 |--x--x--x--x--x--x--x--x--x--x--x--x--x--x--x--x-|--x--x--x--x--x--x--x--x--x------x----x--|
 |-17-17-17-17-17-17-17-17-20-20-20-20-18-18-17-17-|-13-13-13-13-13-13-13-13-13-----13---15--|
 |-------------------------------------------------|-----------------------------------------|

 


 |


 | E S E S E S E E S E E S E S E S E E S E


 

 
 |-------------------------------------------------|-----------------------------------------|
 |-------------------------------------------------|-----------------------------------------|
 |-------------------------------------------------|-----------------------------------------|
 |--5-----5--5-----5--5-----5--5-----5-----5--5----|--1-----1--1-----1--1-----1-1-1----1--1--|
 |--5-----5--5-----5--5-----5--5-----5-----5--5----|--1-----1--1-----1--1-----1-1-1----1--1--|
 |--5-----5--5-----5--5-----5--5-----5-----5--5----|--1-----1--1-----1--1-----1-1-1----1--1--|

 


 


 S S S S S S E S S S S S S S S S S S S S S S S S S S S S S S S


 

 
 |----------------------------------------------|-------------------------------------------------|
 |----------------------------------------------|-------------------------------------------------|
 |-19-19-19-19-19-19-20-17-17-17-17-17-17-17-17-|-15-15-15-15-15-15-15-15-17-17-17-17-17-17-17-17-|
 |--x--x--x--x--x--x--x--x--x--x--x--x--x--x--x-|--x--x--x--x--x--x--x--x--x--x--x--x--x--x--x--x-|
 |-17-17-17-17-17-17-18-15-15-15-15-15-15-15-15-|-13-13-13-13-13-13-13-13-15-15-15-15-15-15-15-15-|
 |----------------------------------------------|-------------------------------------------------|

 


 |


 | E S E S E S E E S E E S E S E S E E S E


 

 
 |----------------------------------------------|-------------------------------------------------|
 |----------------------------------------------|-------------------------------------------------|
 |--3-----3--3-----3--3-------------------------|-------------------------------------------------|
 |--3-----3--3-----3--3--3--3-----3-----3--3----|--5-----5--5-----5--5-----5--5-----5-----5--5----|
 |--1-----1--1-----1--1--3--3-----3-----3--3----|--5-----5--5-----5--5-----5--5-----5-----5--5----|
 |-----------------------3--3-----3-----3--3----|--5-----5--5-----5--5-----5--5-----5-----5--5----|

 


 


 S S S S S S S S S S S S S S S S


 

 
 |--------------------------------------------------|
 |--------------------------------------------------|
 |-19-19-19-19-19-19-19-19-22-22-22-22-20-20-19-19--|
 |--x--x--x--x--x--x--x--x--x--x--x--x--x--x--x--x--|
 |-17-17-17-17-17-17-17-17-20-20-20-20-18-18-17-17--|
 |--------------------------------------------------|

 


 |


 | E S E S E S E E S E


 

 
 |--------------------------------------------------|
 |--------------------------------------------------|
 |--------------------------------------------------|
 |--5-----5--5-----5--5-----5--5-----5-----5--5-----|
 |--5-----5--5-----5--5-----5--5-----5-----5--5-----|
 |--5-----5--5-----5--5-----5--5-----5-----5--5-----|

 


 


 S S S S S S S S Q E E


 

 
 |----------------------------------------|
 |----------------------------------------|
 |-15-15-15-15-15-15-15-15-15-----15---17-|
 |--x--x--x--x--x--x--x--x--x------x----x-|
 |-13-13-13-13-13-13-13-13-13-----13---15-|
 |----------------------------------------|

 


 |


 | E S E S E S E E S E


 

 
 |----------------------------------------|
 |----------------------------------------|
 |----------------------------------------|
 |--1-----1--1-----1--1-----1-1-1----1--1-|
 |--1-----1--1-----1--1-----1-1-1----1--1-|
 |--1-----1--1-----1--1-----1-1-1----1--1-|

 


 


 S S S S S S E S S S S S S S S


 

 
 |------------------------------------------------||
 |------------------------------------------------||
 |-19-19-19-19-19-19-20-17--17-17-17--17-17-17-17-||
 |--x--x--x--x--x--x--x--x---x--x--x---x--x--x--x-||
 |-17-17-17-17-17-17-18-15--15-15-15--15-15-15-15-||
 |------------------------------------------------||

 


 |


 | E S E S E E. E. E


 

 
 |------------------------------------------------||
 |------------------------------------------------||
 |--3-----3--3-----3--3---------------------------||
 |--3-----3--3-----3--3--3---------3---------3----||
 |--1-----1--1-----1--1--5---------3---------1----||
 |------------------------------------------------||

 


 


 Outro


 [4/4] Gtr III


 ~~


 E Q Q E E E E. E. Q. +E E


 

 
 |------------------------------|-----------------------------|
 |-----------10---------10h==11-|-11p==10---------------------|
 |------------------------------|------------10------(10)S==x-|
 |-10s12-----------12-----------|-----------------------------|
 |------------------------------|-----------------------------|
 |------------------------------|-----------------------------|

 


 |


 | Gtrs I, II


 

 
 | PM----------| PM---------|

 


 | E S E S E. E E S E E S E S E. E E S E


 

 
 |------------------------------|-----------------------------|
 |------------------------------|-----------------------------|
 |------------------------------|-----------------------------|
 |--0--0-0-0--0-----------------|--3-3--3--3--3---------------|
 |--0--0-0-0--0--0----0----0--0-|--3-3--3--3--3--3-3------3-3-|
 |--0--0-0-0--0--0----0----0--0-|--3-3--3--3--3--3-3------3-3-|

 


 


 a E. E. E H E. E. E Q E. +S


 

 
 |------------------------------|---------------------------|
 |-8s11----10-------------------|---------------------------|
 |---------------10-------------|---------------------------|
 |-------------------10---------|-10------------------------|
 |------------------------------|-----13--12-13--12--(12)\--|
 |------------------------------|---------------------------|

 


 |


 | PM----|


 | E S E S E. E E S E E. E. E Q Q


 

 
 |------------------------------|---------------------------|
 |------------------------------|---------------------------|
 |----3--3--3--3--3-------------|---------------------------|
 |----3--3--3--3--3-----3-3-3-3-|-------------3---2---------|
 |----1--1--1--1--1-----1-1-1-1-|--3---5---0--5---3---------|
 |------------------------------|--3---5---0----------------|

 


 


 Gtr III


 S +S +S E. Q E E E E. E. Q. +E E


 

 
 |-------------------------------------------|-----------------------------|
 |------------------------10---------10h==11-|-11p==10---------------------|
 |-------------------------------------------|------------10------(10)S==x-|
 |-10b12==(10)r(10)s12----------12-----------|-----------------------------|
 |-------------------------------------------|-----------------------------|
 |-------------------------------------------|-----------------------------|

 


 |


 | Gtr IV (Low Volume)


 | ~~~~~~ ~~~


 | Q. Q E E E E. E. H E


 

 
 |----------------------------------------10-|-10--------------------------|
 |------------------------13---------13------|------13---------------------|
 |------------------------------10-----------|------------12-------------x-|
 |-12----------------------------------------|-----------------------------|
 |-------------------------------------------|-----------------------------|
 |-------------------------------------------|-----------------------------|

 


 |


 | Gtrs I, II


 

 
 | PM----------| PM---------|

 


 | E S E S E. E E S E E S E S E. E E S E


 

 
 |-------------------------------------------|-----------------------------|
 |-------------------------------------------|-----------------------------|
 |-------------------------------------------|-----------------------------|
 |--0------------0---0--0--0-----------------|--3-3--3--3--3---------------|
 |--0------------0---0--0--0--0----0----0--0-|--3-3--3--3--3--3-3------3-3-|
 |--0------------0---0--0--0--0----0----0--0-|--3-3--3--3--3--3-3------3-3-|

 


 


 ~~


 a E. E. E H E. E. E Q Q H H


 

 
 |-------------------------------|--------------------------------|------------*|
 |-8s=11----10-------------------|--------------------------------|------------*|
 |----------------10-------------|--------------------------------|-10---------*|
 |--------------------10---------|-10-----------------------------|------------*|
 |-------------------------------|--------13-----12-13----12------|------------*|
 |-------------------------------|--------------------------------|------------*|

 


 |


 

 
 | PM-------------------------| ~~

 


 | E. E. E H E E E E E E E E H H


 

 
 |---/10-------------------------|--------------------------------|------------*|
 |----------13-------------------|--------------------------------|------------*|
 |----------------12--10---------|--------------------------------|------------*|
 |-------------------------------|--------------------------------|-12---------*|
 |-------------------------------|-12--12-----12-12-12-12-12---12-|------------*|
 |-------------------------------|--------------------------------|------------*|

 


 |


 | PM----|


 | E S E S E. E E S E E. E. E Q S S E H H


 

 
 |-------------------------------|--------------------------------|------------*|
 |-------------------------------|--------------------------------|------------*|
 |-----3--3--3--3--3-------------|------------------------------0-|--7---------*|
 |-----3--3--3--3--3-----3-3-3-3-|-------------------3-----2-2--2-|--7---------*|
 |-----1--1--1--1--1-----1-1-1-1-|--3------5------0--5-----3-3--3-|--5---------*|
 |-------------------------------|--3------5------0---------------|--0---------*|


Important: The song above is NOT stored on the Chordie server. The original song is hosted at www.guitartabs.cc. Chordie works as a search engine and provides on-the-fly formatting. Chordie does not index songs against artists'/composers' will. To remove this song please click here.

This song is displayed as text-only. Transposing and tuning is only available for chordpro-songs.
Rate #1 of 2 versions

Login - add to songbook

SHARE PAGE  




You need to log in to post comments