Guitar Tabs, Chords and Lyrics
Major upgrade!! After one year development the new version of Chordie is now online! Please give feedback.


A Crow Left of the Murder   Incubus

 
 E|----------------------------------------------------------------|
 B|----------------------------------------------------------------|
 G|--0-0-0-0-0-0-----0-0-0-0-0-0-----0-0-0-0-0-0-----0-0-0-0-0-0---|
 D|--5-5-5-5-5-5b--5-5-5-5-5-5-5b--5-5-5-5-5-5-5b--5-5-5-5-5-5-5b--|
 A|----------------------------------------------------------------|
 E|----------------------------------------------------------------|
 E|----------------------------------------------------------------|
 B|----------------------8-8----8-------------------------8-8----8-|
 G|--0---0-0---0-0-------0-0----0-----0---0-0---0-0-------0-0----0-|
 D|--3/5-5-5/8-8-8-0---8-8-8----8---0-3/5-5-5/8-8-8-0---8-8-8----8-|
 A|------------------6---6-6--6-6---------------------6---6-6--6-6-|
 E|----------------------------------------------------------------|
 E|----------------------------------------------------------------|
 B|-----------------------8-8----8-------------------------8-8----8|
 G|---0---0-0---0-0-------0-0----0-----0---0-0---0-0-------0-0----0| X2
 D|-0-3/5-5-5/8-8-8-0---8-8-8----8---0-3/5-5-5/8-8-8-0---8-8-8----8|
 A|-------------------6---6-6--6-6---------------------6---6-6--6-6|
 E|----------------------------------------------------------------|
 E|----------------------------------------------------------------|
 B|-----------------------8-8----8---------------------------------|
 G|---0---0-0---0-0-------0-0----0-----0---0-0---0-0---8-8-8-------|
 D|-0-3/5-5-5/8-8-8-0---8-8-8----8---0-3/5-5-5/8-8-8-0-8-8-8--8-8-8|
 A|-------------------6---6-6--6-6---------------------6-6-6--7-7-7|
 E|-----------------------------------------------------------8-8-8|
 E|----------------------------------------------------------------|
 B|----------------------------------------------------------------|
 G|---------------8-8-8-----------------------8-8-8----------------| X2
 D|--5----5/8-8---8-8-8--8-8-8---5----5/8-8---8-8-8--8-8-8---------|
 A|--5--0-5/8-8-0-6-6-6--7-7-7---5--0-5/8-8-0-6-6-6--7-7-7---------|
 E|--3--0-3/6-6-0--------8-8-8---3--0-3/6-6-0--------8-8-8---------|

 


 


 "Ah, ha!"


 


 


 

 
 E|-------------------------|--------1-----------------3-----------|
 B|--------6----------------|----3-----3-----------6------6---6----|
 G|--0---0------------------|--------------------------------------|
 D|--3/5--------------------|--------------------------------------|
 A|-------------------------|--3---3-------------6---6------6------|
 E|-------------------------|--------------------------------------|

 


 


 "I hear you on the radio."


 


 


 

 
 E|-------------------------|--------3-----------------1-----------|
 B|-------(0)---------------|----6------6----------3------3--------|
 G|--0-----0----------------|--------------------------------------|
 D|--5\3-3-3----------------|--------------------------------------|
 A|-------------------------|--6---6------6------3---3------3------|
 E|-------------------------|--------------------------------------|
 E|-------------------------|--------1-----------------3-----------|
 B|--------6----------------|----3------3----------6------6---6----|
 G|--0---0------------------|--------------------------------------|
 D|--3/5--------------------|--------------------------------------|
 A|-------------------------|--3---3------3------6---6------6------|
 E|-------------------------|--------------------------------------|
 E|-------------------------|--------3------------------1----------|
 B|-------(0)---------------|----6------6-----------3------3---3---|
 G|--0-----0---------0------|--------------------------------------|
 D|--5\3-3-3b------3--------|--------------------------------------|
 A|--------------3-----2----|--6---6------6-------3---3------3-----|
 E|----------------------3--|--------------------------------------|
 E|----------------------------------------------------------------|
 B|-----------------------8-8----8---------------------------------|
 G|---0---0-0---0-0-------0-0----0-----0---0-0---0-0---8-8-8-------|
 D|-0-3/5-5-5/8-8-8-0---8-8-8----8---0-3/5-5-5/8-8-8-0-8-8-8--8-8-8|
 A|-------------------6---6-6--6-6---------------------6-6-6--7-7-7|
 E|-----------------------------------------------------------8-8-8|
 E|----------------------------------------------------------------|
 B|----------------------------------------------------------------|
 G|---------------8-8-8-----------------------8-8-8----------------| X2
 D|--5----5/8-8---8-8-8--8-8-8---5----5/8-8---8-8-8--8-8-8---------|
 A|--5--0-5/8-8-0-6-6-6--7-7-7---5--0-5/8-8-0-6-6-6--7-7-7---------|
 E|--3--0-3/6-6-0--------8-8-8---3--0-3/6-6-0--------8-8-8---------|

 


 


 "Hey, Megalomaniac!"


 


 


 

 
 E|-----------5-5-5-5-------|--------3------------------1----------|
 B|--------6---6-6-6--------|----6------6-----------3------3---3---|
 G|--0---0------------------|--------------------------------------|
 D|--3/5--------------------|--------------------------------------|
 A|-------------------------|--6---6------6-------3---3------3-----|
 E|-------------------------|--------------------------------------|
 E|-------------------------|--------1------------------3----------|
 B|--------6----------------|----3------3-----------6------6---6---|
 G|--0---0------------------|--------------------------------------|
 D|--3/5--------------------|--------------------------------------|
 A|-------------------------|--3---3------3-------6---6------6-----|
 E|-------------------------|--------------------------------------|
 E|-------------------------|--------3------------------1----------|
 B|-------(0)---------------|----6------6-----------3------3---3---|
 G|--0-----0----------------|--------------------------------------|
 D|--5\3-3-3----------------|--------------------------------------|
 A|-------------------------|--6---6------6-------3---3------3-----|
 E|-------------------------|--------------------------------------|
 E|-----------5-5-5-5-------|--------1------------------3----------|
 B|--------6---6-6-6--------|----3------3-----------6------6---6---|
 G|--0---0------------------|--------------------------------------|
 D|--3/5--------------------|--------------------------------------|
 A|-------------------------|--3---3------3-------6---6------6-----|
 E|-------------------------|--------------------------------------|
 E|-------------------------|--------3------------------1----------|
 B|-------(0)---------------|----6------6-----------3------3---3---|
 G|--0-----0---------0------|--------------------------------------|
 D|--5\3-3-3b------3--------|--------------------------------------|
 A|--------------3-----2----|--6---6------6-------3---3------3-----|
 E|----------------------3--|--------------------------------------|
 E|----------------------------------------------------------------|
 B|-----------------------8-8----8---------------------------------|
 G|---0---0-0---0-0-------0-0----0-----0---0-0---0-0---8-8-8-------|
 D|-0-3/5-5-5/8-8-8-0---8-8-8----8---0-3/5-5-5/8-8-8-0-8-8-8--8-8-8|
 A|-------------------6---6-6--6-6---------------------6-6-6--7-7-7|
 E|-----------------------------------------------------------8-8-8|
 E|----------------------------------------------------------------|
 B|----------------------------------------------------------------|
 G|---------------8-8-8-----------------------8-8-8----------------| X4
 D|--5----5/8-8---8-8-8--8-8-8---5----5/8-8---8-8-8--8-8-8---------|
 A|--5--0-5/8-8-0-6-6-6--7-7-7---5--0-5/8-8-0-6-6-6--7-7-7---------|
 E|--3--0-3/6-6-0--------8-8-8---3--0-3/6-6-0--------8-8-8---------|

 


 


 (Very slow and deep phaser is added the 3rd and 4th time around)


 


 


 

 
 E|--------10--------10--------10-------10-------------10--------10|
 B|-----13--------13--------13----13-------13-------13--------13---|
 G|--10--------10--------10----------10-------10-12--------12------|
 D|----------------------------------------------------------------|
 A|----------------------------------------------------------------|
 E|----------------------------------------------------------------|
 E|--------10-------10-------------10-------10-------10-------10---|
 B|-----13----13-------13-------13-------13-------13----13-------13|
 G|--12----------12-------12-10-------10-------10----------10------|
 D|----------------------------------------------------------------|
 A|----------------------------------------------------------------|
 E|----------------------------------------------------------------|
 E|-----------10-------10-------10-------10------------------------|
 B|--------13-------13-------13----13-------13---------------------|
 G|--10-12-------12-------12----------12---------------------------|
 D|----------------------------------------------------------------|
 A|----------------------------------------------------------------|
 E|----------------------------------------------------------------|
 E|----------------------------------------------------------------|
 B|----------------------------------------------------------------|
 G|--12-12-10-12--12-10-12--12-12-10-12-14-12-10-------------------| X8
 D|--10-10-10-10--10-10-10--10-10-10-10-10-10-10-------------------|
 A|----------------------------------------------------------------|
 E|----------------------------------------------------------------|

 


 


 (Slow phaser is again added at the 5th through 8th time around)


 


 


 

 
 E|----------------------------------------------------------------|
 B|----------------------------------------------------------------|
 G|--00000000000000000000000000000000------------------------------|
 D|--55555555555555555555555555555555------------------------------|
 A|----------------------------------------------------------------|
 E|----------------------------------------------------------------|

 


 


 (Start with palm mute, then crescendo)


 


 


 

 
 E|----------------------------------------------------------------|
 B|----------------------------------------------------------------|
 G|---------------8-8-8-----------------------8-8-8----------------| X4
 D|--5----5/8-8---8-8-8--8-8-8---5----5/8-8---8-8-8--8-8-8---------|
 A|--5--0-5/8-8-0-6-6-6--7-7-7---5--0-5/8-8-0-6-6-6--7-7-7---------|
 E|--3--0-3/6-6-0--------8-8-8---3--0-3/6-6-0--------8-8-8---------|

 


 


 (Slow phaser is again added at the 3rd time around untill the end of the song)


 


 2.A CROW LEFT OF THE MURDER


 


 (0:00)


 

 
 E|----------------------------------------------------------------|
 B|----------------------------------------------------------------|
 G|----------------------------------------------------------------| X2
 D|--------9-------------------------------------------------------|
 A|---9-11----11-9-11\---------2-----------------------------------|
 E|-0--------------------0-2-4---4-2-4-----------------------------|
 E|----------------------------------------------------------------|
 B|----------------------------------------------------------------|
 G|----------------------------------------------------------------|
 D|--------13------------------------------------------------------|
 A|---9-11-----11-9-11\---------6----------------------------------|
 E|-0---------------------0-2-4---4-2-4----------------------------|
 E|----------------------------------------------------------------|
 B|----------------------------------------------------------------|
 G|----------------------------------------------------------------|
 D|--------9-------------4--444-2-------9--------------------------|
 A|---9-11----11-9-11\--040-444-2--9-11----11-9-11\--------2-------|
 E|-0-------------------020-222-0--------------------0-2-4---4-2-4-|

 


 


 (0:13)


 

 
 E|----------------------------------------------------------------|
 B|----------------------------------------------------------------|
 G|----------------------------------------------------------------|
 D|--------9-------------------------------------------------------|
 A|---9-11----11-9-11\--------2------------------------------------|
 E|-0-------------------0-2-4---4-2-4------------------------------|
 E|----------------------------------------------------------------|
 B|----------------------------------------------------------------|
 G|----------------------------------------------------------------|
 D|--------13------------------------------------------------------|
 A|---9-11-----11-9-11\--------6-----------------------------------|
 E|-0--------------------0-2-4---4-2-4-----------------------------|
 E|----------------------------------------------------------------|
 B|----------------------------------------------------------------|
 G|----------------------------------------------------------------|
 D|--------9-------------4--444-2-------9--------------------------|
 A|---9-11----11-9-11\--040-444-2--9-11----11-9-11\--------2-------|
 E|-0-------------------020-222-0--------------------0-2-4---4-2-4-|

 


 


 (0:24)


 

 
 E|----------------------------------------------------------------|
 B|----------------------------------------------------------------|
 G|----------------------------------------------------------------|
 D|--------9-------------------------------------------------------|
 A|---9-11----11-9-11\--------2------------------------------------|
 E|-0-------------------0-2-4---4-2-4------------------------------|
 E|----------------------------------------------------------------|
 B|----------------------------------------------------------------|
 G|----------------------------------------------------------------|
 D|--------13------------------------------------------------------|
 A|---9-11-----11-9-11\--------6-----------------------------------|
 E|-0--------------------0-2-4---4-2-4-----------------------------|
 E|----------------------------------------------------------------|
 B|----------------------------------------------------------------|
 G|----------------------------------------------------------------|
 D|--------9-------------4--444-2-------9--------------------------|
 A|---9-11----11-9-11\--040-444-2--9-11----11-9-11\--------2-------|
 E|-0-------------------020-222-0--------------------0-2-4---4-2-4-|

 


 


 (0:35)


 

 
 E|----------------------------------------------------------------|
 B|----------------------------------------------------------------|
 G|----------------------------------------------------------------|
 D|--------9-------------------------------------------------------|
 A|---9-11----11-9-11\--------2------------------------------------|
 E|-0-------------------0-2-4---4-2-4------------------------------|
 E|----------------------------------------------------------------|
 B|----------------------------------------------------------------|
 G|----------------------------------------------------------------|
 D|--------13------------------------------------------------------|
 A|---9-11-----11-9-11\--------6-----------------------------------|
 E|-0--------------------0-2-4---4-2-4-----------------------------|
 E|----------------------------------------------------------------|
 B|----------------------------------------------------------------|
 G|----------------------------------------------------------------|
 D|--------9--------------4-44-------------------------------------|
 A|---9-11----11-9-11\--0-4-44-------------------------------------|
 E|-0-------------------0-2-22-------------------------------------|

 


 


 (0:42)


 

 
 E|----------------------------------------------------------------|
 B|----------------------------------------------------------------|
 G|----------X-7-7------------------X-7-7--------------------------| X2
 D|-555-5-55-X-7-7-X-9-99--555-5-55-X-7-7-X-9-99-------------------|
 A|-555-5-55-X-5-5-X-9-99--555-5-55-X-5-5-X-9-99-------------------|
 E|-333-3-33-X-5-5-X-7-77--333-3-33-X-5-5-X-7-77-------------------|

 


 


 "From here on it's instinctual..."


 


 (0:53)


 

 
 E|----------------------------------------------------------------|
 B|----------------------------------------------------------------|
 G|----------------------------------------------------------------| X2
 D|--------9-------------------------------------------------------|
 A|---9-11----11-9-11---------2------------------------------------|
 E|-0-------------------0-2-4---4-2-4------------------------------|
 E|----------------------------------------------------------------|
 B|----------------------------------------------------------------|
 G|----------------------------------------------------------------|
 D|--------13------------------------------------------------------|
 A|---9-11-----11-9-11---------6-----------------------------------|
 E|-0--------------------0-2-4---4-2-4-----------------------------|
 E|----------------------------------------------------------------|
 B|----------------------------------------------------------------|
 G|----------------------------------------------------------------|
 D|--------9-------------4--444-2-------9--------------------------|
 A|---9-11----11-9-11---040-444-2--9-11----11-9-11---------2-------|
 E|-0-------------------020-222-0--------------------0-2-4---4-2-4-|

 


 


 (1:06)


 

 
 E|----------------------------------------------------------------|
 B|----------------------------------------------------------------|
 G|----------------------------------------------------------------|
 D|--------9-------------------------------------------------------|
 A|---9-11----11-9-11---------2------------------------------------|
 E|-0-------------------0-2-4---4-2-4------------------------------|
 E|----------------------------------------------------------------|
 B|----------------------------------------------------------------|
 G|----------------------------------------------------------------|
 D|--------13------------------------------------------------------|
 A|---9-11-----11-9-11---------6-----------------------------------|
 E|-0--------------------0-2-4---4-2-4-----------------------------|
 E|----------------------------------------------------------------|
 B|----------------------------------------------------------------|
 G|----------------------------------------------------------------|
 D|--------9--------------4-44-------------------------------------|
 A|---9-11----11-9-11---0-4-44-------------------------------------|
 E|-0-------------------0-2-22-------------------------------------|

 


 


 (1:14)


 

 
 E|----------------------------------------------------------------|
 B|----------------------------------------------------------------|
 G|----------X-7-7------------------X-7-7--------------------------| X4
 D|-555-5-55-X-7-7-X-9-99--555-5-55-X-7-7-X-9-99-------------------|
 A|-555-5-55-X-5-5-X-9-99--555-5-55-X-5-5-X-9-99-------------------|
 E|-333-3-33-X-5-5-X-7-77--333-3-33-X-5-5-X-7-77-------------------|

 


 


 "From here on it's instinctual..."


 


 (1:35)


 

 
 E|----------------------------------------------------------------|
 B|----------------------------------------------------------------|
 G|-4----------4/7----------9\4-----------4-2---4---5---4-5-4-2----| X2
 D|-X----------X-X----------X---------------0---0---0---0-0-0-0----|
 A|-2----------2/5----------7\2------------------------------------|
 E|----------------------------------------------------------------|

 


 


 (1:57)


 

 
 E|----------------------------------------------------------------|
 B|----------------------------------------------------------------|
 G|-444444444444/7777777777/99-444444444444--2---4---5---4-5-4-2---| X3
 D|-XXXXXXXXXXXX-XXXXXXXXXX-XX-XXXXXXXXXXXX--0---0---0---0-0-0-0---|
 A|-222222222222/5555555555/77-222222222222------------------------|
 E|----------------------------------------------------------------|

 


 


 (2:29)


 

 
 E|----------------------------------------------------------------|
 B|----------------------------------------------------------------|
 G|-444444444444-777777777777-12-12-12-12-12-12-12-12-12-12-12-12--|
 D|-XXXXXXXXXXXX-XXXXXXXXXXXX-X--X--X--X--X--X--X--X--X--X--X--X---|
 A|-222222222222-555555555555-10-10-10-10-10-10-10-10-10-10-10-10--|
 E|----------------------------------------------------------------|
 E|----------------------------------------------------------------|
 B|----------------------------------------------------------------|
 G|--12-12-12-12-12-12-12-12-12-12-12-12-12-12-12-12-12-12---------|
 D|--X--X--X--X--X--X--X--X--X--X--X--X--X--X--X--X--X--X----------|
 A|--10-10\8--8--8--8--8--8--8--8--8--8--8--8--8--8--8--8----------|
 E|----------------------------------------------------------------|

 


 


 (2:39)


 

 
 E|----------------------------------------------------------------|
 B|----------------------------------------------------------------|
 G|----------------------------------------------------------------| X2
 D|--------9-------------------------------------------------------|
 A|---9-11----11-9-11\---------2-----------------------------------|
 E|-0--------------------0-2-4---4-2-4-----------------------------|
 E|----------------------------------------------------------------|
 B|----------------------------------------------------------------|
 G|----------------------------------------------------------------|
 D|--------13------------------------------------------------------|
 A|---9-11-----11-9-11\---------6----------------------------------|
 E|-0---------------------0-2-4---4-2-4----------------------------|
 E|----------------------------------------------------------------|
 B|----------------------------------------------------------------|
 G|----------------------------------------------------------------|
 D|--------9--------------4--444-2-------9-------------------------|
 A|---9-11----11-9-11\---040-444-2--9-11----11-9-11\--------2------|
 E|-0--------------------020-222-0--------------------0-2-4---4-2-4|

 


 


 (2:53)


 

 
 E|----------------------------------------------------------------|
 B|----------------------------------------------------------------|
 G|----------------------------------------------------------------|
 D|--------9-------------------------------------------------------|
 A|---9-11----11-9-11\--------2------------------------------------|
 E|-0-------------------0-2-4---4-2-4------------------------------|
 E|----------------------------------------------------------------|
 B|----------------------------------------------------------------|
 G|----------------------------------------------------------------|
 D|--------13------------------------------------------------------|
 A|---9-11-----11-9-11\--------6-----------------------------------|
 E|-0--------------------0-2-4---4-2-4-----------------------------|

 


 


 (2:58)


 

 
 E|----------------------------------------------------------------|
 B|----------------------------------------------------------------|
 G|----------------------------------------------------------------|
 D|--------9-------------4--444-2--------9-------------4---444-2---|
 A|---9-11----11-9-11\--040-444-2---9-11----11-9-11\--040--444-2---|
 E|-0-------------------020-222-0---------------------020--222-0---|
 E|----------------------------------------------------------------|
 B|----------------------------------------------------------------|
 G|----------------------------------------------------------------|
 D|------9-------------4--444-2-------13--13---13\---4--444-2------|
 A|-9-11----11-9-11\--040-444-2--9-11-----11-9-11\--040-444-2------|
 E|-------------------020-222-0---------------------020-222-0------|
 E|----------------------------------------------------------------|
 B|----------------------------------------------------------------|
 G|----------------------------------------------------------------|
 D|------13---13---13\---4--444-2-------13-------13-------13-------|
 A|-9-11------11-9-11\--040-444-2--9-11-----9-11-----9-11----------|
 E|---------------------020-222-0----------------------------------|
 E|----------------------------------------------------------------|
 B|----------------------------------------------------------------|
 G|----------------------------------------------------------------|
 D|------13-------13-------13-------13-------13-------13-------13--|
 A|-9-11-----9-11-----9-11-----9-11-----9-11-----9-11-----9-11-----|
 E|----------------------------------------------------------------|
 E|----------------------------------------------------------------|
 B|----------------------------------------------------------------|
 G|----------------------------------------------------------------|
 D|------13-------13-------13-------13----4--444-2-----------------|
 A|-9-11-----9-11-----9-11-----9-11------040-444-2-----------------|
 E|--------------------------------------020-222-0-----------------|

 


 


 3.AGORAPHOBIA


 


 Tuning: DADGBE


 


 Riff 1:


 

 
 ------------------------------------------------------------------------|
 ---0-----------------0------------------0----------------0--------------|
 -----2-----------------2------------------2----------------2------------|
 -------------3-3------------3-3-4-4--------------3-3-------------4-4-3--|
 --------3--3-3-3---------3--3-3-4-4---------3--3-3-3---------3-3-4-4-3--|
 -0------3--3-3-3---0-----3--3-3-4-4---0-----3--3-3-3---0-----3-3-4-4-3--|

 


 


 Riff 2:


 

 
 --------------------------------|
 --------------------------------|
 --------------------------2---2-|
 -----3-------3-------3----3---3-|
 ---5-------5-------5------------|
 -0-----3-------3-0-----3----3---|

 


 


 Riff 2a:


 

 
 -----------------------------------|
 -----------------------------------|
 -----------------------------------|
 -----3-------3-------3----4-4------|
 ---5-------5-------5------4-4-3----|
 -0-----3-------3-0-----3--4-4-3----|

 


 


 Riff 3 (not quite sure about this, but sounds ok):


 

 
 -----3------3--------3-------3--------3-----3--------3-----3---|
 ---1------1--------1-------1--------1-----1--------1-----1-----|
 ---------------------------------------------------------------|
 -------1-------1-3------1------1-3-----1------1-3------1-----1-|
 -3-------------------------------------------------------------|
 ---------------------------------------------------------------| 

 


 


 Riff 3a:


 

 
 -----3------3--------3-------3--------3-----3--------------------|
 ---1------1--------1-------1--------1-----1----------------------|
 -----------------------------------------------------------------|
 -------1-------1-3------1------1-3-----1------1--3-3-3-3-3-3-3-3-|
 -3-----------------------------------------------3-3-3-3-3-3-3-3-|
 -------------------------------------------------3-3-3-3-3-3-3-3-|

 


 


 


 Riff 4:


 

 
 --------------------------------------------------------------------|
 --------------------------------------------------------------------|
 -----------0-------------0------------------0--------------2--------|
 -----0---1-------3-0-------0----------0---1-------3-0--------4---0--|
 ---5---1-----0-1-----1-------1-0----5---1-----0-1------1-------0----|
 -5---------------------1----------5----------------------0----------|

 


 


 Riff 4a:


 

 
 ----------------------------------------------------------|
 ----------------------------------------------------------|
 -----------0-------------0------------------0-------------|
 -----0---1-------3-0-------0----------0---1-------3-0--1--|
 ---5---1-----0-1-----1-------1-0----5---1-----0-1------1--|
 -5---------------------1----------5--------------------1--|

 


 


 Riff 4b:


 

 
 ---------------------------------------------------------------|
 ---------------------------------------------------------------|
 -----------0-------------0------------------0------------------|
 -----0---1-------3-0-------0----------0---1-------3-0----0--0--|
 ---5---1-----0-1-----1-------1-0----5---1-----0-1--------0--0--|
 -5---------------------1----------5----------------------0--0--| 

 


 


 Riff 4c:


 

 
 ------------------------------------------------------------|
 ------------------------------------------------------------|
 -----------0-------------0------------------0---------------|
 -----0---1-------3-0-------0----------0---1-------3-0--1--1-|
 ---5---1-----0-1-----1-------1-0----5---1-----0-1------1--1-|
 -5---------------------1----------5--------------------1--1-|

 


 Riff 5 (my best guessings here... very difficult to listen):


 

 
 ------------------------------------------------------------------------------|
 ------------------------------------------------------------------------------|
 -----------8------------------------------------------------------------------|
 -12---12---8--10--8--10--8----10--8-10---10-10-8-10-10-8-10-8--1-1-0-1-1-0-1--|
 --8-8--8-8-8---6--6---6--6--6--6--6--6---10-10-8-10-10-8-10-8--1-1-0-1-1-0-1--|
 --8-8--8-8-8---6--6---6--6--6--6--6--6---10-10-8-10-10-8-10-8--1-1-0-1-1-0-1--|

 


 Riff 5a:


 

 
 --------------------------------------------------------------------------------------|
 --------------------------------------------------------------------------------------|
 -----------8--------------------------------------------------------------------------|
 -12---12---8--10--8--10--8----10--8-10---10-10-8-10-10-8-10-8--10--8--10--8-----8--8--|
 --8-8--8-8-8---6--6---6--6--6--6--6--6---10-10-8-10-10-8-10-8---6--6---6--6--6--6--6--|
 --8-8--8-8-8---6--6---6--6--6--6--6--6---10-10-8-10-10-8-10-8---6--6---6--6--6--6--6--|

 


 


 Riff 5b:


 

 
 ---------------------------------------------------------------------------------|
 ---------------------------------------------------------------------------------|
 -----------8---------------------------------------------------------------------|
 -12---12---8--10--8--10--8----10--8-10-------------------------------------------|
 --8-8--8-8-8---6--6---6--6--6--6--6--6---13-11-10-10---8-10--10-10-10-10--10-10--|
 --8-8--8-8-8---6--6---6--6--6--6--6--6---10-10-10-10--10-10--10-10-10-10--10-10--|

 


 Riff 5c:


 

 
 ---------------------------------------------------------------|
 ---------------------------------------------------------------|
 -----------8---------------------------------------------------|
 -12---12---8--10--8--10--8----10--8-10---10-10-8-10-10-8-10-8--|
 --8-8--8-8-8---6--6---6--6--6--6--6--6---10-10-8-10-10-8-10-8--|
 --8-8--8-8-8---6--6---6--6--6--6--6--6---10-10-8-10-10-8-10-8--|

 


 


 Riff 6:


 

 
 ----------|
 ----------|
 -5--5--5--|
 -4--4--4--|
 ----------|
 -6--6--6--|

 


 


 Fill 1:


 

 
 -----------------|
 ----------6-8-9--|
 ---5-7-8---------|
 -8---------------|
 -----------------|
 -----------------|

 


 


 Fill 2:


 

 
 --------|
 --------|

 


 -5-7-8--|


 

 
 --------|
 --------|
 --------|

 


 


 Riff 7:


 

 
 --------------------------------------|
 --------------------------------------|
 ---------------1----------------------|
 -5-5-3-5-5-3-5-1--6-6-6-6---6-6-6--3--|
 -1-1-1-1-1-1-1-1--6-6-4---4-4-6-4--3--|
 -1-1-1-1-1-1-1-1-------------------3--|

 


 


 4.TALK SHOW ON MUTE


 


 standard tunning


 intro;


 

 
 |-----------------|-----------------|-----------------|-------------------|
 |-----------------|-----------------|-----------------|-------------------|
 |-----------0-----|-----------0-----|-----------0-----|-------------------|
 |-2-2-0-2-----2-0-|-2-2-0-2-----2-0-|-2-2-0-2-----2---|-2-2-0-2-0-/9-9-0--|
 |-3-3-0-3-3-----0-|-3-3-0-3-3-----0-|-0-0-0-0-0-----0-|-0-0-0-0-0-/7-7-0--|
 |-----------------|-----------------|-----------------|-------------------|
 PM------| PM------| PM------| PM------|
 |-----------------|-----------------|-----------------|-------------------|
 |-----------------|-----------------|-----------------|-------------------|
 |-----------0-----|-----------0-----|-----------0-----|-------------------|
 |-2-2-0-2-----2-0-|-2-2-0-2-----2-0-|-2-2-0-2-----2---|-2-2-0-2-0-/9-9-0--|
 |-3-3-0-3-3-----0-|-3-3-0-3-3-----0-|-0-0-0-0-0-----0-|-0-0-0-0-0-/7-7-0--|
 |-----------------|-----------------|-----------------|-------------------|
 PM------| PM------| PM------| PM------|
 |-----------------|-----------------|-----------------|---------------------|
 |-----------------|-----------------|-----------------|---------------------|
 |-----------0-----|-----------0-----|-----------0-----|---------------------|
 |-2-2-0-2-----2-0-|-2-2-0-2-----2-0-|-2-2-0-2-----2---|-2-2-0-2-0-/9-9-10---|
 |-3-3-0-3-3-----0-|-3-3-0-3-3-----0-|-0-0-0-0-0-----0-|-0-0-0-0-0-/7-7--8---|
 |-----------------|-----------------|-----------------|---------------------|
 |---------------------|--------------------------|----3----------|----------0------|
 |-----10-----10-10-10-|----10-10-10-10-10-10-----|----3--------6-|---6------0------|
 |------0------0--0--0-|-----0--0--0--0--0--0-----|----4--------4-|---4------0------|
 |-10--10-----10-10-10-|----10-10-10-10-10-10-----|----5--------3-|---3------2------|
 |--8---8------8--8--8-|-----8--8--8--8--8--8-----|-5--5--5-5-5-5-|---5----2--------|
 |---------------------|----------------------0-0-|-3--3--3-3-3-3-|---3--0------0-0-|
 |--------------------|--------------------------|----3----3---6-|-(6)\\3--3-3-3-3-3--|
 |----10--10-10-10-10-|----10-10-10-10-10-10-----|----3----3---6-|-(6)\\3--3-3-3-3-3--|
 |-----9---9--9--9--9-|-----9--9--9--9--9--9-----|----4----4---7-|-(7)\\4--4-4-4-4-4--|
 |----10--10-10-10-10-|----10-10-10-10-10-10-----|----5----5---8-|-(8)\\5--5-5-5-5-5--|
 |-8---8---8--8--8--8-|-----8--8--8--8--8--8-----|-5--5--5-5-5/8-|-(8)\\5--5-5-5-5-5--|
 |--------------------|----------------------0-0-|-3--3--3-3-3/6-|-(6)\\3--3-3-3-3-3--|
 |-----------|----------|-^0-----------|--------|
 |-^0--------|----------|-^0-----------|--------|
 |-^0--------|----------|-^2-----------|--------|
 |-^2--------|----------|-^2-----------|--------|
 |-^3--------|----------|-^0----(0)----|-(0)----|
 |-----------|----------|--------------|--------|
 |-----------|----------|-----------|--------------|
 |-^0--------|----------|-^0--------|--------------|
 |-^0--------|----------|-^2--------|--------------|
 |-^2--------|----------|-^2--------|--------9-9-0-|
 |-^3--------|----------|-^0--------|--------7-7-0-|

 


 


 solo


 

 
 |----------------|-------------------|--------------------|----------------|
 |----------------|-------------------|--------------------|----------------|
 |----------------|-------------------|---------5----------|--------0----0--|
 |----------------|-5---5-7-5h7-5---7-|-5h7-5-7---7-5-5h7--|----0-5-5--0----|
 |-5h7--------5-7-|---7-----------7---|--------------------|----------------|
 |----------------|-------------------|--------------------|----------------|
 |---------------------|----------------------------------|--------------|---------------|
 |---------------------|----------------------------------|--------------|---------------|
 |-0-0--0--0-----0--0--|--0-------------0--0-----0--------|---------5----|--------5------|
 |-5-7-10-10/12\\10-12-|-12/14-(14)\\12-12-12\\10-10\\7-7-|-7\\5-5-7-----|----------7----|
 |---------------------|----------------------------------|--------------|------------7/-|
 |---------------------|----------------------------------|--------------|---------------|
 |-----------------------|----------------------|-----------------|-----------------|
 |-------10--------10----|----------------------|-----------------|-----------------|
 |----------9------------|----------------------|-9---9-7-----7-7-|---9---9p7---7---|
 |----10--------10----10-|-10-10-10-10\\9-9-7-7-|---7-------7-----|-----7-----7---7-|
 |-/8--------------------|----------------------|-----------------|-----------------|
 |-----------------------|----------------------|-----------------|-----------------|
 |-----------------|-----------------|----------------|--------------------|
 |-----------------|-----------------|----------------|--------------------|
 |-7\\---5----5---5|-7---5-----5---5-|---4-4----4---4-|---4-4-4-4-4-4------|
 |----7----7---7---|---7---7-7---7---|-7-7-7--7---7-5-|---5-5-5-5-5-5-0-0--|
 |-----------------|-----------------|----------------|--------------------|

 


 


 5.BEWARE!CRIMINAL


 


 Intro


 


 

 
 E-----|------------------|
 B-----|-7--7-7-----------|
 G-X-b6|----------b6-6-xb6|
 D-X-b6|---4-4--4-b4-6-xb6|
 A-----|-------------4----|
 E-----|------------------|

 


 


 Verse


 


 

 
 E------------------|-------------|
 B-7--7-7-----------|-------------|
 G----------b6-6-xb6|-6666-22-----|
 D---4-4--4-b4-6-xb6|-6666-22-77-2|
 A-------------4----|-4444-00-77-2|
 E------------------|---------55-0|

 


 


 Chorus


 


 

 
 E--------------------------------------|
 B----------6-666666--------------------|
 G-2-222222-x-xxxxxx--------------------|
 D-2-222222-3-333333-4x4x444--3x333-2222|
 A-0-000000----------4x4x444--3x333-2222|
 E-------------------2x2x2220-1x111-0000|
 E--------------------------------------|
 B----------6-666666--------------------|
 G-2-222222-x-xxxxxx--------------------|
 D-2-222222-3-333333-4-444444-3333-2222-|
 A-0-000000----------4-444444-3333-2222-|
 E-------------------2-222222-1111-0000-|
 E--------------------------------------|
 B-------------------6-666666-----------|
 G-2-222222----------x-xxxxxx-----------|
 D-2-222222-6-666666-3-333333-4444-3333-|
 A-0-000000-4-444444----------4444-3333-|
 E----------4-444444----------2222-1111-|
 E-----0-----------|----------------|
 B-----6-6-6666666-|--------^5-^5-^5|
 G-222---x-xxxxxxx-|----------------|
 D-222---3-3333333-|-2--------------|
 A-000-------------|-2--------------|
 E-----------------|-0--------------|

 


 


 Interlude


 


 

 
 E-----------------------------|
 B-----------------------------|
 G-----------------------------|
 D-----------------------------|
 A-----4-----4-2-----4-----4-7-|
 E-2-2---0-0-----2-2---0-0-----|
 E-----------------------------|
 B-----------------------------|
 G-----------------------------|
 D-4-4-------------------------|
 A-----4--7-7--4------4-----4-2|
 E--------0-0-----2-2---0-0----|

 


 


 Last Chorus


 


 

 
 E-----------------------------------|
 B-------2--------7------------------|
 G-----2--------6-------3---------2--|
 D---2--------4-------4---4-----3---3|
 A-0--------0-----------------3------|
 E--------0---------2-------1--------|

 


 


 Strum slowly


 


 

 
 E--------------------------------|
 B-2-----2-7-----7----------------|
 G-2---2---6---6------------------|
 D-2-2-----4-4-----4x4x4x4-3x3x2x2|
 A-0-------0-------4x4x4x4-3x3x2x2|
 E-----------------2x2x2x2-1x1x0x0|

 


 


 6.SICK SAD LITTLE WORLD


 


 Intro


 


 

 
 e|--------------------------------------------------------------------------|
 B|---------------------------------------------------0-0--------------------|
 G|---------------------------------------------------4-4-x-1--1-1-x-x-------|
 D|------------------4--------------2-----------------2-2-x-2--2-2-x-x-4-4-4-|
 A|-------4--4---------------0h2h4----4-2-0-2-4--4-4-x------0--0-0-x-x-4-4-4-|
 E|--0-4---4--4--0-4---4-0~~-------------------------------------------2-2-2-|
 e|-------------------------------------------------------------------------|
 B|---------------------------------------------------0-0-------------------|
 G|---------------------------------------------------4-4-x-----------------|
 D|------------------4--------------2-----------------2-2-x-4-4-4-x-x-7-7-7-|
 A|-------4--4---------------0h2h4----4-2-0-2-4--4-4-x------4-4-4-x-x-7-7-7-|
 E|--0-4---4--4--0-4---4-0~~--------------------------------2-2-2-x-x-5-5-5-|

 


 


 [00:25] 


 


 

 
 e|-------------------------------------------------------------------------------------------------|
 B|-------------------------------------------------------------------------------------------------|
 G|-----------------------------------------------------------------------------------6---6-6-6---6-|
 D|-------------------------------------------------------------------------------------------------|
 A|-4---4-4-4---4------4---4-4-4---4-0---0-0-0---0--------------------------------------------------|
 E|-------------------------------------------------2---2-2-2---2------0---0-0-0---0----------------|
 e|-------------------------------------------------------------------------------------------------|
 B|-------------------------------------------------------------------------------------------------|
 G|-------------------------------------------------------------------------------------------------|
 D|-----------------------------------------------------------------------------------6---6-6-6---6-|
 A|-4---4-4-4---4------4---4-4-4---4-0---0-0-0---0--------------------------------------------------|
 E|-------------------------------------------------2---2-2-2---2------0---0-0-0---0----------------|

 


 


 [00:51] 


 


 2X


 

 
 e|-------------------------------------------------|
 B|-------------------------------------------------|
 G|----6------6-7-2---------------------------------|
 D|-4--6---4--6-7-2---------------------------------|
 A|-4--4---4--4-5-0---------------------------------|
 E|-2------2----------------------------------------|

 


 


 [02:56] 


 

 
 E||----------------------------------|---------0~----|
 B||----------------------------------|---------0~----|
 G||------4---4-------4---4-------4---|------2~-------|
 D||----------------------------------|---------2~----|
 A||----4---4---4---4---4---4---4-----|--4--0~--------|
 E||--0-----------0-----------0-------|---------------|

 


 ~ = wah-wah


 


 

 
 e|---------------------------------------------------------------|
 B|---------------------------------------------------------------|
 G|---------------------------------------------------------------|
 D|-4/9~--9/11~-----11-13-11-13----11-13-11-13-11-13-14--9---(14)-|
 A|---------------------------------------------------------------|
 E|---------------------------------------------------------------|

 


 


 [03:22] 


 


 

 
 e|-------------------------------------------------------------------------|
 B|-------------------------------------------------------------------------|
 G|-8/11\8--8/11\8---6/11\6----6h8p6-2h4--4/2-2-1-1--2--1h2p1---------------|
 D|-------------------------------------------------------2--2/4--4---4/6-2-|
 A|-------------------------------------------------------------------------|
 E|-------------------------------------------------------------------------|
 e|-12--12---------9------7------4--2h4p2p0h2---4------------------------------------4-5-|
 B|-------9--9-7-----7\4----4\2-----------------------2/4-4/5--5\2--4p2-4/5-2-4-5--------|
 G|--------------------------------------------------------------------------------------|
 D|--------------------------------------------------------------------------------------|
 A|--------------------------------------------------------------------------------------|
 E|--------------------------------------------------------------------------------------|

 


 


 [03:45] 


 


 

 
 e|-5//---------------12------------------------------------0--0--0-0-0-0-0-|
 B|-5//---12---------------12--------------------------5-/7--9--0-0-0-0-0---|
 G|-----------------9-----------11-------------------6----------9-9/8-8/9---|
 D|----------------------9-------------------------5------------------------|
 A|---------------------------9---------------------------------------------|
 E|---------------------------------9/7----7/9------------------------------|

 


 


 [03:59] 


 


 pm.......


 

 
 e|-12-14-------------------------------------14--12--14--12-14-12--20b--20b-|
 B|-------------------12-14-12-----12/14--12---------------------------------|
 G|---------11-13------------------------------------------------------------|
 D|--------------------------------------------------------------------------|
 A|--------------------------------------------------------------------------|
 E|--------------------------------------------------------------------------|
 e|-12/14--12--------------------------------------------------|
 B|------------14-12---------------------12-14-12-------14-12--|
 G|------------------11---11bbr----11-13-----------11b---------|
 D|------------------------------------------------------------|
 A|------------------------------------------------------------|
 E|------------------------------------------------------------|

 


 


 [04:18] 


 


 

 
 e|----------------------------------9--|
 B|----5--------5--------5----------x---|
 G|--6---6----6---6----6---6------6-----|
 D|--------5--------5--------5----------|
 A|-------------------------------------|
 E|-------------------------------------|

 


 


 This part is picked really fast with echo and wah/wah


 

 
 e|---9---7--12--14--16------------------------|
 B|---------------------14-12--9--7------------|
 G|--------------------------------------------|
 D|--------------------------------------------|
 A|--------------------------------------------|
 E|--------------------------------------------|

 


 


 turn effect off here


 

 
 e|-11-12-11--9--11-12-14-16-14-16-12-16-12-16-12-|
 B|-----------------------------------------------|
 G|-----------------------------------------------|
 D|-----------------------------------------------|
 A|-----------------------------------------------|
 E|-----------------------------------------------|

 


 


 p= pulloff


 

 
 e|-16p-12------16p-12------16-16-12-19-19--------|
 B|-------16p-12------16p-12----------------------|
 G|-----------------------------------------------|
 D|-----------------------------------------------|
 A|-----------------------------------------------|
 E|-----------------------------------------------|
 e|--19p-14------19p-14------19-19-19-19-19-------|
 B|--------19p-14------19p-14---------------------|
 G|-----------------------------------------------|
 D|-----------------------------------------------|
 A|-----------------------------------------------|
 E|-----------------------------------------------|
 E||----------------------------------|----------0~---|
 B||----------------------------------|----------0~---|
 G||------4---4-------4---4-------4---|-------2~------|
 D||----------------------------------|----------2~---|
 A||----4---4---4---4---4---4---4-----|--4---0~-------|
 E||--0-----------0-----------0-------|---------------|

 


 ~ = wah-wah


 


 Song ends with main riff.


 


 7.PISTOLA


 


 (0:18)


 

 
 E|----------------------------------------------------------------|
 B|----------------------------------------------------------------|
 G|-------13--------13-------13--------13--------------------------| X2
 D|----------------------------------------------------------------|
 A|----11--------11----0------------------11-----------------------|
 E|--0-------12----------10-----10-11------------------------------|
 E|----------------------------------------------------------------|
 B|----------------------------------------------------------------|
 G|-------13--------13----------13--------13-----------------------|
 D|----------------------------------------------------------------|
 A|----11--------11----0---------------------11--------------------|
 E|--0-------12----------10-10-----10-11---------------------------|
 E|----------------------------------------------------------------|
 B|----------------------------------------------------------------|
 G|-------13--------13-------13-------13---------------------------|
 D|----------------------------------------------------------------|
 A|----11--------11----0-----------9-----9-------------------------|
 E|--0-------12----------10-----10---------------------------------|

 


 


 (0:30)


 

 
 E|----------------------------------------------------------------|
 B|----------------------------------------------------------------|
 G|-------13--------13-------13--------13--------------------------| X2
 D|----------------------------------------------------------------|
 A|----11--------11----0------------------11-----------------------|
 E|--0-------12----------10-----10-11------------------------------|
 E|----------------------------------------------------------------|
 B|----------------------------------------------------------------|
 G|-------13--------13----------13--------13-----------------------|
 D|----------------------------------------------------------------|
 A|----11--------11----0---------------------11--------------------|
 E|--0-------12----------10-10-----10-11---------------------------|
 E|----------------------------------------------------------------|
 B|----------------------------------------------------------------|
 G|-------13--------13-------13-------13---------------------------|
 D|----------------------------------------------------------------|
 A|----11--------11----0-----------9-----9-------------------------|
 E|--0-------12----------10-----10---------------------------------|


Important: The song above is NOT stored on the Chordie server. The original song is hosted at www.guitartabs.cc. Chordie works as a search engine and provides on-the-fly formatting. Chordie does not index songs against artists'/composers' will. To remove this song please click here.

This song is displayed as text-only. Transposing and tuning is only available for chordpro-songs.
Rate #1 of 1 versions

Login - add to songbook

SHARE PAGE  



You need to log in to post comments