Guitar Tabs, Chords and Lyrics
Major upgrade!! After one year development the new version of Chordie is now online! Please give feedback.


Agoraphobia   Incubus

 
 B-||----------------------------------|
 D-||----3-----3-4-----3----------3-4--|
 A-||-5-----5-------5-----3/5-0--------|
 E-||---------------------------3------|

 


 


 :: Verse 1 ::


 

 
 B-||--------------------------------------------------|
 D-||------3-------------------3-----------------------|
 A-||-3/5-----3/5--0------3/5-----3/5-0--0//8-0-10-10--| May be incorrect.
 E-||----------------3-1-------------------------------| ( -0//8-0-10-10- )

 


 


 :: Pre-Chorus ::


 

 
 B-||---------------------------------------------------|
 D-||------1---3-3-3-1----1-3-3-3-1----1-3-3-3-1--------|
 A-||-3-3-3-------------3------------3-----------1-1-1--|
 E-||---------------------------------------------------|
 B-||--------------------------------------------------|
 D-||-------1---3-3-3-1---1-3-3-3-1---1-3-3-3-3-3-3-3--|
 A-||-3-3-3--------------3-----------3-----------------|
 E-||--------------------------------------------------|

 


 


 :: Chorus ::


 

 
 B-||-----3--------------------------3----3---------------------------|
 D-||-5-5---0-1-1-3----------1-1-0-1---55---0-1-1-3---------11-0-1----|
 A-||---------------0-1-1-3-------------------------0-1-1-3--------3--|
 E-||-----------------------------------------------------------------|

 


 


 :: Interlude ::


 

 
 B-||-----------------------------------------------|
 D-||--15-13-12-----6-------------------1--0-1-0-1--|
 A-||-------------6---6-----3--1-3-1-3--------------|
 E-||-----------4-------44--------------------------|
 B-||---------------------------------------------------|
 D-||--15-13-12-----6----------------------------0-1-3--|
 A-||-------------6---6-----3--1-3-1-3-------3-5--------|
 E-||-----------4-------44--------------4-6---------------|
 B-||---------------------------------------------|
 D-||--15-13-12-----6-------5-66-5--33-1----------|
 A-||-------------6---6------------------55-3-11--|
 E-||-----------4-------44------------------------|
 B-||---------------------------------------------------------------------|
 D-||--15-13-12-----6----------------------------0-1-3-5---------0-1-3-5--|
 A-||-------------6---6-----3--1-3-1-3-------3-5-------------3-5----------|
 E-||-----------4-------44--------------4-6--------------4-6--------------|


Important: The song above is NOT stored on the Chordie server. The original song is hosted at www.guitartabs.cc. Chordie works as a search engine and provides on-the-fly formatting. Chordie does not index songs against artists'/composers' will. To remove this song please click here.

This song is displayed as text-only. Transposing and tuning is only available for chordpro-songs.
Rate #1 of 1 versions

Jango Player

Login - add to songbook

SHARE PAGE  



You need to log in to post comments