Guitar Tabs, Chords and Lyrics
Major upgrade!! After one year development the new version of Chordie is now online! Please give feedback.


Diamonds and Coal   Incubus

 
 e|----------------------------------|--[piano]--|---|
 b|----------------------------------|8~-6~-5~---|---|
 g|----------------------------------|---------7~|---|
 d|--------7----7-----7----7---------|-----------|---|
 a|----4-5--------4-5--------4-5-----|-----------|---|
 E|----------5~---------5~-------5~--|-----------|---|

 


 


 [Pre-Verse] 


 

 
 e|---------------------------------------------------------------------|
 b|---------------------------------------------------------------------|
 g|---------------------------------------------------------------------|
 d|------------------7-7-6-6-4-4-6-6------------------------------------|
 a|----7-7-7-7-7-7-7-5-5-4-4-2-2-4-4/--5-5-5-5-5-5-5-5-5-5-5-5-5-5-5-5--|
 E|----5-5-5-5-5-5-5-------------------3-3-3-3-3-3-3-3-3-3-3-3-3-3-3-3--|

 


 * * * * * * * * * * * * * * * * * * * * * * * * *


 [Verse] 


 

 
 e|---------------------------------------------------------------------|
 b|---------------------------------------------------------------------|
 g|---------------------------------------------------------------------|
 d|------------------7-7-6-6-4-4-6-6------------------------------------|
 a|----7-7-7-7-7-7-7-5-5-4-4-2-2-4-4/--5-5-5-5-5-5-5-5-5-5-5-5-5-5-5-7--|
 E|----5-5-5-5-5-5-5-------------------3-3-3-3-3-3-3-3-3-3-3-3-3-3-3-5--|

 


 * * * * * * * * * * * * * * * * * * * * * * * *


 


 [Cborus] 


 

 
 e|---------------------------------------------------------------------|
 b|---------------------------------------------------------------------|
 g|---------------------------------------------------------------------|
 d|------------------7-7-6-6-4-4-6-6---5-5-5-5-5-5-5-5-5-5-5-5-5-5-5-5--|
 a|----7-7-7-7-7-7-7-5-5-4-4-2-2-4-4/--5-5-5-5-5-5-5-5-5-5-5-5-5-5-5-5--|
 E|----5-5-5-5-5-5-5-------------------3-3-3-3-3-3-3-3-3-3-3-3-3-3-3-3--|

 


 * * * * * * * * * * * * * * * * * * * * * * * * *


 

 
 e|---------------------------------------------------|---------------|
 b|---------------------------------------------------|-----1st-------|
 g|---------------------------------------------------|--Chorus-Only--|
 d|------------------7-7-6-6-4-4-6-6---5-5-5-5-5-5-5-5|5-5-5-5-5-5-5-5|
 a|----7-7-7-7-7-7-7-5-5-4-4-2-2-4-4/--5-5-5-5-5-5-5-5|5-5-5-5-5-5-5-5|
 E|----5-5-5-5-5-5-5-------------------3-3-3-3-3-3-3-3|3-3-3-3-3-3-3-3|

 


 * * * * * * * * * * * * * *


 

 
 e|---------------|
 b|--2nd-&-Final--|
 g|----Chorus-----|
 d|2-2-2-2-2-2-2-2|
 a|2-2-2-2-2-2-2-2|
 e|0-0-0-0-0-0-0-0|

 


 


 [Bridge a] 


 

 
 e|---------------------------------------------------------------------|
 b|---------------------------------------------------------------------|
 g|---------------------------------------------------------------------|
 d|---------------------------------------------------------------------|
 a|----14-16-14-16-14-16-14----14-16-14-16-14-16-14----12-14-12-14-12-14|
 E|---------------------------------------------------------------------|
 e|---------------------------------------------------------------------|
 b|---------------------------------------------------------------------|
 g|---------------------------------------------------------------------|
 d|---------------------------------------------------------------------|
 a|-12----12-14-12-14-12-14-12------------------------------------------|
 E|---------------------------------------------------------------------|

 


 


 [Bridge B] 


 

 
 e|----------------------------------|--[piano]--|---|
 b|----------------------------------|8~-6~-5~---|---|
 g|----------------------------------|---------7~|---|
 d|--------7----7-----7----7---------|-----------|---|
 a|----4-5--------4-5--------4-5-----|---Not-3rd-|---|
 E|----------5~---------5~-------5~--|-----Time--|---|

 


 


 [Bridge C] 


 

 
 e|----------------------------------|
 b|----------------------------------|
 g|----------------------------------|
 d|--------5----5-----5----5---------|
 a|----2-3--------2-3--------2-3-----|
 E|----------3~---------3~-------3~--|

 


 


 [Bridge d] 


 

 
 e|-------------------------------------------------------------------------|
 b|-------------------------------------------------------------------------|
 g|-------------------------------------------------------------------------|
 d|--------3----3-----3-----------------------------------------------------|
 a|----0-1--------0-1-----3-1-0---------------------------------------------|
 E|----------1~---------1-------3-1-0-0-0-0-0-0-0-0-0-0-0-0-0-0-0-----------|

 


 


 [Solo] 


 

 
 e|-------------------------------------------------------------------------|
 b|-------------------------------------------------------------------------|
 g|----14-14-14-14-14-14-14-14-14-14-14-14-14-14-14-14-12-12-12-12-12-12-12-|
 d|-------------------------------------------------------------------------|
 a|----------------------------------------------------14-12-14-12-14-12-12-|
 E|-------------------------------------------------------------------------|
 e|-------------------------------------------------------------------------|
 b|-------------------------------------------------------------------------|
 g|-12-12-12-12-12-12-12-12-14-16-14-16-14-16-14----14-16-14-16-14-16-14----|
 d|-------------------------------------------------------------------------|
 a|-12-14-12-14-12-14-12-12-------------------------------------------------|
 E|-------------------------------------------------------------------------|

 


 


 [Outro] 


 

 
 e|-------------------------------------------------------------------------|
 b|-------------------------------------------------------------------------|
 g|-------------------------------------------------------------------------|
 d|--------7----7-----5----5------------------------------------------------|
 a|----4-5--------2-3--------0-1--------------------------------------------|
 E|----------5~---------3~-------1-0~---------------------------------------|


Important: The song above is NOT stored on the Chordie server. The original song is hosted at www.guitartabs.cc. Chordie works as a search engine and provides on-the-fly formatting. Chordie does not index songs against artists'/composers' will. To remove this song please click here.

This song is displayed as text-only. Transposing and tuning is only available for chordpro-songs.
Rate #1 of 5 versions

Login - add to songbook

SHARE PAGE  




You need to log in to post comments