Guitar Tabs, Chords and Lyrics
Major upgrade!! After one year development the new version of Chordie is now online! Please give feedback.


Dig  Incubus

 
 -------------------------------------------------------------------------------

Dig - Incubus
 
 -------------------------------------------------------------------------------

Tabbed by:Sarabjeet Matharu
Email: chaoseverlasting@gmail.com
Tuning: Standard
Riff 1 (Intro/Verse)
E (maj7 implied) F#sus2 C#m
 
 e|----------16----------------------16-----------------16-----------------16-------|
 B|----16-------16-------16----16-------16--------14-------14--------14-------14----|
 G|---------------------------------------------------------------------------------|
 D|-14----14-------14-14----14----14-------14--16----16-------16--------------------|
 A|---------------------------------------------------------------16----16-------16-|
 E|---------------------------------------------------------------------------------|

[Emaj]We all have a weakness
[F#sus2]But some of ours are [C#m]easy to ide[Emaj]ntify.
[F#sus2]Look me in the e[C#m]ye
and ask [Emaj]for forgiveness;
[F#sus2]We'll make a pact to nev[C#m]er speak that wo[Emaj]rd again.
[F#sus2]Yes, you are my [C#m]friend.
[Emaj]We all have something th[F#sus2]at digs at us.
[C#m]At least we dig [Emaj]each other.[F#sus2] [C#m]
[Emaj]So when weakness turns m[F#sus2]y ego up[C#m]
[Emaj]I know you'll co[F#sus2]unt on the me fr[C#m]om yesterday.
C#m7 Emaj7 Bmaj //This is on another
If I turn into another,
C#m F#m7 C#m7 Emaj7 Bmaj //On covering
Dig me up from under what is covering
[F#m7]The bett[Emaj]er part of me.
[C#m7]Sing [Emaj7]this s[Bmaj]ong!
[C#m7]Remind me that we'll alw[F#m7]ays have[C#m7] each[Emaj7] other[Bmaj]
[F#m7]When everything [Emaj]else is gone.
The rest of the song is the same. The patterns repeat.
A couple of things on how to play this song. The verse chords
sound like they're played on the bottom three strings.
So the E would be the D shape a step up and the F#sus2
would be the Dsus2 two steps up with the C#m played with
C# on the 4th fret.
For the chorus chords, C#m and C#m7 on the 4th fret
with F#m7 on the 9th fret and Emaj/Emaj7 on the 7th fret.
Play the Bmaj on the 7th fret but dont play the hige e (1e)
string.
Feel free to PM me (hitman_47).

Important: The song above is NOT stored on the Chordie server. The original song is hosted at www.guitartabs.cc. Chordie works as a search engine and provides on-the-fly formatting. Chordie does not index songs against artists'/composers' will. To remove this song please click here.

Text color:
Chord color:
Chord grids: 
Font size:    
Page size: 

Bmaj C#m C#m7 Emaj Emaj7 F#m7
Rate #1 of 11 versions

Jango Player

Login - add to songbook

SHARE PAGE  



You need to log in to post comments