Guitar Tabs, Chords and Lyrics
Major upgrade!! After one year development the new version of Chordie is now online! Please give feedback.


Drive   Incubus

 
 G[----------------------------------------------------]
 D[----------------------------------------------------]
 A[--------------3-3-3-3-------------------------------]
 E[-0-0-3-0-3-5----------5-5-5-3-----------------------]

 


 


 Verse:


 

 
 G[---------------]
 D[---------------]
 A[-------3-3-----]
 E[-0-0-3-----5-0-]

 


 


 Verse Variations:


 

 
 G[-----------------I--------------------]
 D[-----------------I--------------------]
 A[-------3-3-------I-------3-3-3--------]
 E[-0-0-3-----5p3-0-I-0-0-3-------h5-5p3-]

 


 


 Pre Chorus: Before last Chorus:


 

 
 G[--------------] [--------------------------------]
 D[--------------] [----7-7---7-7-------------------]
 A[-3-3-3--------] [--------------------------------]
 E[-------5-5-5--] [--------------------------------]


Important: The song above is NOT stored on the Chordie server. The original song is hosted at www.guitartabs.cc. Chordie works as a search engine and provides on-the-fly formatting. Chordie does not index songs against artists'/composers' will. To remove this song please click here.

This song is displayed as text-only. Transposing and tuning is only available for chordpro-songs.
Rate #1 of 14 versions

Jango Player

Login - add to songbook

SHARE PAGE  



You need to log in to post comments