Guitar Tabs, Chords and Lyrics
Major upgrade!! After one year development the new version of Chordie is now online! Please give feedback.


Favorite Things   Incubus

 
 -9---9-9-9-9----------------------9---9-9-9-9--------------------1-------------
 -x---x-8-8-8----------------------x---x-8-8-8--------------------1-------------
 -6---6-6-6-6----------------------6---6-6-6-6--------------------1-------------
 ---------------7-7-7--xxxxx--------------------8-8-8-8-8--xxxxx--1---7-8-8-8-8-
 ---------------7-7-7--xxxxx--------------------8-8-8-8-8--xxxxx--1---7-8-8-8-8-
 ---------------5-5-5--xxxxx--------------------6-6-6-6-6--xxxxx--1---5/6-6-6-6- P.M... 

 


 intro/chorus #3 /pre-verse *END #2*


 


 [#1] [#2] [#3]  

 
 ----------|------24-----|------------
 ----------|-------------|------------
 ---3------|-------------|------------
 ---5------|-------------|--6/7-7-7---
 ---4------|-------------|--6/7-7-7---
 ----------|-------------|--4/5-5-5---

 


 verse- play with delay, phaser and distortion


 swell #1


 


 

 
 ------------------------------------1----------
 ------------------------------------1----------
 ------------------------------------1----------
 ------------------------------------1-----7----
 ----------7-7-8-8---------9-9-8-8---1-----7----
 --5-5-5-5---------6-6-6-6-----------1-----5----

 


 P.M............................. P.M.


 chorus *END #4*


 


 

 
 ------------------------------------------------------------------------------
 ------------------------------------------------------------------------------
 ---------10-10---------------------------------------------------------------
 ---7-----10-10----7--8--8---------------------------------------------------
 ---7-----8--8-----7--8--8---------------------------------------------------
 ---5--------------5--6--6---------------------------------------------------

 


 chorus no.2


 STRUM PATTERN IS EASY TO FIGURE OUT WHEN YOU LISTEN TO THE SONG


 


 

 
 ------------------------------------------------------------------------------
 ------------------------------------------------------------------------------
 ------------------------------------------------------------------------------
 ----7-----x6----x5-----x3---------------------------------------------------
 ----7-----x6----x5-----x3---------------------------------------------------
 ----5------4-----3------1---------------------------------------------------


Important: The song above is NOT stored on the Chordie server. The original song is hosted at www.guitartabs.cc. Chordie works as a search engine and provides on-the-fly formatting. Chordie does not index songs against artists'/composers' will. To remove this song please click here.

This song is displayed as text-only. Transposing and tuning is only available for chordpro-songs.
Rate #2 of 2 versions

Login - add to songbook

SHARE PAGE  




You need to log in to post comments