Guitar Tabs, Chords and Lyrics
Major upgrade!! After one year development the new version of Chordie is now online! Please give feedback.


Megalomaniac  Incubus

As recorded by Incubus
(From the 2004 Album A CROW LEFT OF THE MURDER)
Transcribed by Victor Ochoa
Words and Music by Incubus
Arranged by Victor Ochoa
Intro
Moderately Fast Rock Q=141
N.C.
[4/4] Gtr I
 
 |---------------------|---------------------|
 |---------------------|---------------------|
 |-0-0-0-0-0-0-----0-0-|-0-0-0-0-0-0-----0-0-|
 |-5-5-5-5-5-5b5.5-5-5-|-5-5-5-5-5-5b5.5-5-5-|
 |---------------------|---------------------|
 |---------------------|---------------------|
 |---------------------|---------------------|
 |---------------------|---------------------|
 |-0-0-0-0-0-0-----0-0-|-0-0-0-0-0-0-----0-0-|
 |-5-5-5-5-5-5b5.5-5-5-|-5-5-5-5-5-5b5.5-5-5-|
 |---------------------|---------------------|
 |---------------------|---------------------|

[Gm7] [Eb] [Gm7] [Eb]  
 
 ||------------------|-----------------|-----------------|------------------||
 ||o-----------------|-----8-8-----8---|-----------------|-----8-8-----8---o||
 ||--0-0-0-0-0-0-0---|-----0-0-----0---|-0-0-0-0-0-0-0---|-----0-0-----0----||
 ||--3s5-5-5s8-8-8-0-|---8-8-8---8-8-0-|-3s5-5-5s8-8-8-0-|---8-8-8---8-8-0--||
 ||o-----------------|-6-6-6-6-6-6-6---|-----------------|-6-6-6-6-6-6-6---o||
 ||------------------|-----------------|-----------------|------------------||

Gm7 Eb E Gm7 Eb E
 
 |-----------------|-----------------|-----------------|------------------|
 |-----------------|-----8-8-----8---|-----------------|-----8-8-----8----|
 |-0-0-0-0-0-0-0---|-----0-0-----0---|-0-0-0-0-0-0-0---|-----0-0-----0----|
 |-3s5-5-5s8-8-8-0-|---8-8-8---8-8-0-|-3s5-5-5s8-8-8-0-|---8-8-8---8-8-0--|
 |-----------------|-6-6-6-6-7-7-7---|-----------------|-6-6-6-6-7-7-7----|
 |-----------------|-----------------|-----------------|------------------|

Gm7 Eb E Gm7 Eb E
<
 
 |-----------------|-----------------|-----------------|--------------------|
 |-----------------|-----8-8-----8---|-----------------|-----8-8------8-----|
 |-0-0-0-0-0-0-0---|-----0-0-----0---|-0-0-0-0-0-0-0---|-----0-0------0-----|
 |-3s5-5-5s8-8-8-0-|---8-8-8---8-8-0-|-3s5-5-5s8-8-8-0-|---8-8-8---8--8--0--|
 |-----------------|-6-6-6-6-7-7-7---|-----------------|-6-6-6-6-7-7--7-----|
 |-----------------|-----------------|-----------------|--------------------|

|
| Gtrs II, III
 
 |-----------------|-----------------|-----------------|--------------------|
 |-----------------|-----------------|-----------------|--------------------|
 |-----------------|-----------------|-----------------|--------------------|
 |-----------------|-----------------|-----------------|--------------------|
 |-----------------|-----------------|-----------------|--------------------|
 |-----------------|-----------------|-----------------|---------3s==15\----|

[G5]Gtrs II, II[Bb5]I[Eb] [Cm7] [G5] [Bb5] [Eb] [Cm7]
 
 ||-------------------|-----------------|------------------|------------------||
 ||o------------------|-----------------|------------------|-----------------o||
 ||-------------------|-8-8-8-8-8-8-8---|------------------|-8-8-8-8-8-8-8----||
 ||--5--x-5-(5)-8-8---|-8-8-8-8-8-8-8---|-5--x-5-(5)-8-8---|-8-8-8-8-8-8-8----||
 ||o-5--x-5-(5)-8-8-0-|-6-6-6-6-6-6-6-0-|-5--x-5-(5)-8-8-0-|-6-6-6-6-6-6-6-0-o||
 ||--3--x-3-(3)-6-6-0-|-6-6-6-6-8-8-8-0-|-3--x-3-(3)-6-6-0-|-6-6-6-6-8-8-8-0--||

Verse
[Gm7]Gtr I[C7sus4] [Ebmaj9]
 
 ||-----------------|------------|---------1-(1)-------|---------3-(3)-------|
 ||o-------6-(6)----|-(6)--------|-----3---------3---3-|-----6---------6---6-|
 ||--0---0----------|------------|-------x---------x---|-------x---------x---|
 ||--3s5------------|------------|---------------------|---------------------|
 ||o----------------|------------|-(3)-----------------|-(6)-----------------|
 ||-----------------|------------|---------------------|---------------------|

|
| Gtr II
 
 | PM----| PM-----| PM-----|
 ||-----------------|------------|---------------------|---------------------|
 ||o----------------|------------|---------------------|---------------------|
 ||-----------------|------------|---------------------|---------------------|
 ||-----------------|------------|---------------------|---------------------|
 ||o----------------|------------|--3--3-1-3-----------|--6--6-5-6-----------|
 ||--3-3-1-3--------|------------|---------------------|---------------------|

[G7] [Ebmaj9] [C7sus4]  
 
 |----------------|------------|---------3-(3)-------|---------1-(1)--------|
 |-0-----0-(0)----|-(0)--------|-----6---------6---6-|-----3---------3---3--|
 |-0--------------|------------|-------x---------x---|-------x---------x----|
 |-5s3-3----------|------------|---------------------|----------------------|
 |----------------|------------|-(6)-----------------|-(3)------------------|
 |----------------|------------|---------------------|----------------------|

|
 
 | PM----| PM-----| PM-----|
 |----------------|------------|---------------------|----------------------|
 |----------------|------------|---------------------|----------------------|
 |----------------|------------|---------------------|----------------------|
 |----------------|------------|---------------------|----------------------|
 |----------------|------------|--6--6-5-6-----------|--3--3-1-3------------|
 |-3-3-1-3--------|------------|---------------------|----------------------|

[Gm7] [C7sus4] [Ebmaj9]  
 
 |----------------|------------|---------1-(1)-------|---------3-(3)--------|
 |-------6-(6)----|-(6)--------|-----3---------3---3-|-----6---------6---6--|
 |-0---0----------|------------|-------x---------x---|-------x---------x----|
 |-3s5------------|------------|---------------------|----------------------|
 |----------------|------------|-(3)-----------------|-(6)------------------|
 |----------------|------------|---------------------|----------------------|

|
 
 | PM----| PM-----| PM-----|
 |----------------|------------|---------------------|----------------------|
 |----------------|------------|---------------------|----------------------|
 |----------------|------------|---------------------|----------------------|
 |----------------|------------|---------------------|----------------------|
 |----------------|------------|--3--3-1-3-----------|--6--6-5-6------------|
 |-3-3-1-3--------|------------|---------------------|----------------------|

[G7]  
 
 |----------------------|-----------------|
 |-0--------------------|-----------------|
 |-0--------------------|---------0-------|
 |-5s3-3-3-(3)b4===(3)r=|=(3)---0---------|
 |----------------------|-----3-----1-----|
 |----------------------|--------------3--|

|
| PM----|
 
 |----------------------|-----------------|
 |----------------------|-----------------|
 |----------------------|-----------------|
 |----------------------|-----------------|
 |----------------------|-----------------|
 |-3-3-1-3--------------|-----------------|

[Ebmaj9] [C7sus4]  
 
 |---------3-(3)-------|---------1-(1)--------||
 |-----6---------6---6-|-----3---------3---3--||
 |-------x---------x---|-------x---------x----||
 |---------------------|----------------------||
 |-(6)-----------------|-(3)------------------||
 |---------------------|----------------------||

|
 
 | PM-----| PM-----|
 |---------------------|----------------------||
 |---------------------|----------------------||
 |---------------------|----------------------||
 |---------------------|----------------------||
 |--6--6-5-6-----------|--3--3-1-3------------||
 |---------------------|----------------------||

Pre-Chorus
Gm7 Eb E Gm7 Eb E
<
 
 |-----------------|-----------------|-----------------|------------------||
 |-----------------|-----8-8-----8---|-----------------|-----8-8-----8----||
 |-0-0-0-0-0-0-0---|-----0-0-----0---|-0-0-0-0-0-0-0---|-----0-0-----0----||
 |-3s5-5-5s8-8-8-0-|---8-8-8---8-8-0-|-3s5-5-5s8-8-8-0-|---8-8-8---8-8-0--||
 |-----------------|-6-6-6-6-7-7-7---|-----------------|-6-6-6-6-7-7-7----||
 |-----------------|-----------------|-----------------|------------------||

|
| Gtrs II, III
| <
 
 |-----------------|-----------------|-----------------|------------------||
 |-----------------|-----------------|-----------------|-----8-8-----8----||
 |-----------------|-----------------|-0-0-0-0-0-0-0---|-----0-0-----0----||
 |-----------------|-----------------|-3s5-5-5s8-8-8-0-|---8-8-8---8-8-0--||
 |-----------------|-----------------|-----------------|-6-6-6-6-7-7-7----||
 |-----------------|-----------------|-----------------|------------------||

Chorus
[G5]Gtrs II, II[Bb5]I[Eb] [Cm7] [G5] [Bb5] [Eb] [Cm7]
 
 |------------------|-----------------|------------------|------------------|
 |------------------|-----------------|------------------|------------------|
 |------------------|-8-8-8-8-8-8-8---|------------------|-8-8-8-8-8-8-8----|
 |-5--x-5-(5)-8-8---|-8-8-8-8-8-8-8---|-5--x-5-(5)-8-8---|-8-8-8-8-8-8-8----|
 |-5--x-5-(5)-8-8-0-|-6-6-6-6-6-6-6-0-|-5--x-5-(5)-8-8-0-|-6-6-6-6-6-6-6-0--|
 |-3--x-3-(3)-6-6-0-|-6-6-6-6-8-8-8-0-|-3--x-3-(3)-6-6-0-|-6-6-6-6-8-8-8-0--|

[G5] [Bb5] [Eb] [Cm7] [G5] [Bb5] [Eb] [Cm7]  
 
 |------------------|-----------------|------------------|------------------||
 |------------------|-----------------|------------------|------------------||
 |------------------|-8-8-8-8-8-8-8---|------------------|-8-8-8-8-8-8-8----||
 |-5--x-5-(5)-8-8---|-8-8-8-8-8-8-8---|-5--x-5-(5)-8-8---|-8-8-8-8-8-8-8----||
 |-5--x-5-(5)-8-8-0-|-6-6-6-6-6-6-6-0-|-5--x-5-(5)-8-8-0-|-6-6-6-6-6-6-6-0--||
 |-3--x-3-(3)-6-6-0-|-6-6-6-6-8-8-8-0-|-3--x-3-(3)-6-6-0-|-6-6-6-6-8-8-8-0--||

Pre-Verse
1.
[Gm7]Gtr I
 
 |----------------|-----0---0---0---0-|
 |-------6-(6)----|-(6)---6---6---6---|
 |-0---0----------|-------------------|
 |-3s5------------|-------------------|
 |----------------|-------------------|
 |----------------|-------------------|

|
| Gtr II
| PM----|
 
 |----------------|-------------------|
 |----------------|-------------------|
 |----------------|-------------------|
 |----------------|-------------------|
 |----------------|-------------------|
 |-3-3-1-3--------|-------------------|

[Ebmaj9] [C7sus4]  
 
 |---------3-(3)-------|---------1-(1)---------||
 |-----6---------6---6-|-----3---------3---3--o||
 |-------x---------x---|-------x---------x-----||
 |---------------------|-----------------------||
 |-(6)-----------------|-(3)------------------o||
 |---------------------|-----------------------||

|
 
 | PM-----| PM-----|
 |---------------------|-----------------------||
 |---------------------|----------------------o||
 |---------------------|-----------------------||
 |---------------------|-----------------------||
 |--6--6-5-6-----------|--3--3-1-3------------o||
 |---------------------|-----------------------||

2.
[G5]Gtrs II, III[Bb5], IV[Eb] [Cm7] [G5] [Bb5] [Eb] [Cm7]
 
 |-------------------|-----------------|-------------------|------------------|
 |-------------------|-----------------|-------------------|------------------|
 |-------------------|-8-8-8-8-8-8-8---|-------------------|-8-8-8-8-8-8-8----|
 |-5-5-x-5-(5)-8-8---|-8-8-8-8-8-8-8---|-5-5-x-5-(5)-8-8---|-8-8-8-8-8-8-8----|
 |-5-5-x-5-(5)-8-8-0-|-6-6-6-6-6-6-6-0-|-5-5-x-5-(5)-8-8-0-|-6-6-6-6-6-6-6-0--|
 |-3-3-x-3-(3)-6-6-0-|-6-6-6-6-8-8-8-0-|-3-3-x-3-(3)-6-6-0-|-6-6-6-6-8-8-8-0--|

[G5] [Bb5] [Eb] [Cm7] [G5] [Bb5] [Eb] [Cm7]  
 
 |-------------------|-----------------|-------------------|------------------||
 |-------------------|-----------------|-------------------|------------------||
 |-------------------|-8-8-8-8-8-8-8---|-------------------|-8-8-8-8-8-8-8----||
 |-5-5-x-5-(5)-8-8---|-8-8-8-8-8-8-8---|-5-5-x-5-(5)-8-8---|-8-8-8-8-8-8-8----||
 |-5-5-x-5-(5)-8-8-0-|-6-6-6-6-6-6-6-0-|-5-5-x-5-(5)-8-8-0-|-6-6-6-6-6-6-6-0--||
 |-3-3-x-3-(3)-6-6-0-|-6-6-6-6-8-8-8-0-|-3-3-x-3-(3)-6-6-0-|-6-6-6-6-8-8-8-0--||

Interlude
|-----|
|-----|
|-----|
|-----|
|-----|
|-----|
[Dm7]Gtr I
 
 |--------10-(10)-------10-|-(10)-------10-------10----|
 |-----13------------13----|---------13----13-------13-|
 |--10------------10-------|------10----------10-------|
 |-------------------------|---------------------------|
 |-------------------------|---------------------------|
 |-------------------------|---------------------------|

[D7sus4]  
 
 |----------10-(10)-------10-|-(10)-------10-------10-----|
 |-------13------------13----|---------13----13-------13--|
 |-10-12------------12-------|------12----------12--------|
 |---------------------------|----------------------------|
 |---------------------------|----------------------------|
 |---------------------------|----------------------------|

[Dm7]  
 
 |----------10-(10)-------10-|-(10)-------10-------10----|
 |-------13------------13----|---------13----13-------13-|
 |-12-10------------10-------|------10----------10-------|
 |---------------------------|---------------------------|
 |---------------------------|---------------------------|
 |---------------------------|---------------------------|

[D7sus4]  
 
 |----------10-(10)-------10-|-(10)-------10-------10-----|
 |-------13------------13----|---------13----13-------13--|
 |-10-12------------12-------|------12----------12--------|
 |---------------------------|----------------------------|
 |---------------------------|----------------------------|
 |---------------------------|----------------------------|

Gtrs I, III
 
 ||----------------------------|---------------------------|
 ||o---------------------------|---------------------------|
 ||--12-12-10-12-(12)-12-10-12-|-(12)-12-12-10-12-14-12-10-|
 ||--10-10-10-10-(10)-10-10-10-|-(10)-10-10-10-10-10-10-10-|
 ||o---------------------------|---------------------------|
 ||----------------------------|---------------------------|
 |---------------------------|----------------------------||
 |---------------------------|---------------------------o||
 |-12-12-10-12-(12)-12-10-12-|-(12)-12-12-10-12-14-12-10--||
 |-10-10-10-10-(10)-10-10-10-|-(10)-10-10-10-10-10-10-10--||
 |---------------------------|---------------------------o||
 |---------------------------|----------------------------||

Gtrs I, II, III
 
 ||----------------------------|---------------------------|
 ||o---------------------------|---------------------------|
 ||--12-12-10-12-(12)-12-10-12-|-(12)-12-12-10-12-14-12-10-|
 ||--10-10-10-10-(10)-10-10-10-|-(10)-10-10-10-10-10-10-10-|
 ||o---------------------------|---------------------------|
 ||----------------------------|---------------------------|
 |---------------------------|----------------------------||
 |---------------------------|---------------------------o||
 |-12-12-10-12-(12)-12-10-12-|-(12)-12-12-10-12-14-12-10--||
 |-10-10-10-10-(10)-10-10-10-|-(10)-10-10-10-10-10-10-10--||
 |---------------------------|---------------------------o||
 |---------------------------|----------------------------||

Pre-Chorus
Gtr I
 
 |---------------------|---------------------|
 |---------------------|---------------------|
 |-0-0-0-0-0-0-----0-0-|-0-0-0-0-0-0-----0-0-|
 |-5-5-5-5-5-5b5.5-5-5-|-5-5-5-5-5-5b5.5-5-5-|
 |---------------------|---------------------|
 |---------------------|---------------------|

Gtrs II, III
 
 |---------------------|-----------------------||
 |---------------------|-----------------------||
 |-0-0-0-0-0-0-----0-0-|-0-0-0-0-0-0-----------||
 |-5-5-5-5-5-5b5.5-5-5-|-5-5-5-5-5-5b5.5-------||
 |---------------------|-----------------------||
 |---------------------|-----------------15\---||

Chorus
[G5]Gtrs II, II[Bb5]I[Eb] [Cm7] [G5] [Bb5] [Eb] [Cm7]
 
 |------------------|-----------------|------------------|------------------|
 |------------------|-----------------|------------------|------------------|
 |------------------|-8-8-8-8-8-8-8---|------------------|-8-8-8-8-8-8-8----|
 |-5--x-5-(5)-8-8---|-8-8-8-8-8-8-8---|-5--x-5-(5)-8-8---|-8-8-8-8-8-8-8----|
 |-5--x-5-(5)-8-8-0-|-6-6-6-6-6-6-6-0-|-5--x-5-(5)-8-8-0-|-6-6-6-6-6-6-6-0--|
 |-3--x-3-(3)-6-6-0-|-6-6-6-6-8-8-8-0-|-3--x-3-(3)-6-6-0-|-6-6-6-6-8-8-8-0--|

[G5] [Bb5] [Eb] [Cm7] [G5] [Bb5] [Eb] [Cm7]  
 
 |------------------|-----------------|------------------|------------------|
 |------------------|-----------------|------------------|------------------|
 |------------------|-8-8-8-8-8-8-8---|------------------|-8-8-8-8-8-8-8----|
 |-5--x-5-(5)-8-8---|-8-8-8-8-8-8-8---|-5--x-5-(5)-8-8---|-8-8-8-8-8-8-8----|
 |-5--x-5-(5)-8-8-0-|-6-6-6-6-6-6-6-0-|-5--x-5-(5)-8-8-0-|-6-6-6-6-6-6-6-0--|
 |-3--x-3-(3)-6-6-0-|-6-6-6-6-8-8-8-0-|-3--x-3-(3)-6-6-0-|-6-6-6-6-8-8-8-0--|

[G5]Gtrs II, III[Bb5], IV[Eb] [Cm7] [G5] [Bb5] [Eb] [Cm7]
 
 |-------------------|-----------------|-------------------|------------------|
 |-------------------|-----------------|-------------------|------------------|
 |-------------------|-8-8-8-8-8-8-8---|-------------------|-8-8-8-8-8-8-8----|
 |-5-5-x-5-(5)-8-8---|-8-8-8-8-8-8-8---|-5-5-x-5-(5)-8-8---|-8-8-8-8-8-8-8----|
 |-5-5-x-5-(5)-8-8-0-|-6-6-6-6-6-6-6-0-|-5-5-x-5-(5)-8-8-0-|-6-6-6-6-6-6-6-0--|
 |-3-3-x-3-(3)-6-6-0-|-6-6-6-6-8-8-8-0-|-3-3-x-3-(3)-6-6-0-|-6-6-6-6-8-8-8-0--|

[G5] [Bb5] [Eb] [Cm7]  
 
 |-------------------|-----------------|
 |-------------------|-----------------|
 |-------------------|-8-8-8-8-8-8-8---|
 |-5-5-x-5-(5)-8-8---|-8-8-8-8-8-8-8---|
 |-5-5-x-5-(5)-8-8-0-|-6-6-6-6-6-6-6-0-|
 |-3-3-x-3-(3)-6-6-0-|-6-6-6-6-8-8-8-0-|

[G5] [Bb5] [Eb] [Cm7]  
 
 |-------------------|----------------|--------*|
 |-------------------|----------------|--------*|
 |-------------------|-8-8-8-8-8-8-8--|-(8)----*|
 |-5-5-x-5-(5)-8-8---|-8-8-8-8-8-8-8--|-(8)----*|
 |-5-5-x-5-(5)-8-8-0-|-6-6-6-6-6-6-6--|-(6)----*|
 |-3-3-x-3-(3)-6-6-0-|-6-6-6-6-8-8-8--|-(8)----*|


Important: The song above is NOT stored on the Chordie server. The original song is hosted at www.guitartabs.cc. Chordie works as a search engine and provides on-the-fly formatting. Chordie does not index songs against artists'/composers' will. To remove this song please click here.

Text color:
Chord color:
Chord grids: 
Font size:    
Page size: 

Bb5 C7sus4 Cm7 D7sus4 Dm7 Eb Ebmaj9 G5 G7 Gm7
Rate #1 of 3 versions

Jango Player

Login - add to songbook

SHARE PAGE  



You need to log in to post comments