Guitar Tabs, Chords and Lyrics
Major upgrade!! After one year development the new version of Chordie is now online! Please give feedback.


Paper Shoes  Incubus

Incubus - Paper Shoes
Light Grenades
Tabbed by: Tom Lavery
email: tomlavery2@aol.com
AIM: railmaster123
Catchy, but simple. Enjoy
Standard Tuning (EADGbe)
 
 e|--------------------------------------------------------------------------------|
 b|-3-----3-------3------3-------3------3-------3-----3-------3--------------------|
 G|---0-----0-------0-------0-------0-----0-------0-----0-------0------------------|
 D|-----0-----0-------0-------0-------0-----0-------0-----0-------0----------------|
 A|-3-----2-----2--------1------1--------------------------------------------------|
 E|-------------------------------------3-----3-------3-----3----------------------|

I fly
I soar
this I adore
you'd fly
you'd soar
but then like a locomotive
the sound of your sorrow comes
I'm tired of the way it feels
I only apologized to you to make you feel better
I think I've outgrown that wholesale sweater
I'd rather be on my own
You're 'bout as reliable as paper shoes in bad weathers
but pain will roll off like water on feathers
( Tab from: http://www.guitartabs.cc/tabs/i/incubus/paper_shoes_tab.html )
I'm tired of the way that it feels
I only apologized to you to make you feel better
I think I've outgrown that horsehair sweater
I'd rather be on my own
You're 'bout as reliable as paper shoes in bad weathers
but pain will roll off like water on feathers
Chorus:
Chords
[C#min] [Amaj] [F#min] [G#maj] [Bmaj]  
 
 -4- -0- -2- -4- -2-
 -5- -2- -2- -4- -4-
 -6- -2- -2- -5- -4-
 -6- -2- -4- -6- -4-
 -4- -0- -4- -6- -2-
 --- --- -2- -4- ---

[Amaj]and then like a locom[G#maj]otive
the sound of your sorrow [C#min]comes
I'm tired of the way it [Amaj]feels
I only apolo[F#min]gized to you to make you feel better
I [G#maj]think I've outgrown that [Bmaj]wholesale sweater
[C#min]I'd rather be al[Amaj]one
You're 'bout as reli[F#min]able as paper shoes in bad weathers
but [G#maj]pain will roll off like [Bmaj]water on feathers
Verse
Chorus
Verse
Chorus
-Tom Lavery

Important: The song above is NOT stored on the Chordie server. The original song is hosted at www.guitartabs.cc. Chordie works as a search engine and provides on-the-fly formatting. Chordie does not index songs against artists'/composers' will. To remove this song please click here.

Text color:
Chord color:
Chord grids: 
Font size:    
Page size: 

Amaj Bmaj C#min F#min G#maj
Rate #1 of 5 versions

Jango Player

Login - add to songbook

SHARE PAGE  



You need to log in to post comments