Guitar Tabs, Chords and Lyrics
Server problems seems to be fixed. Chordie has been experiencing problems with songs disappearing. These issues now seems to be fixed, but still verifying the fix. If you find anything strange, please email admin@chordie.com.


J'ai demandé � la lune  Indochine

Play this verse riff as you hear it on the song, I have seen this played live like this
I guess it is 100% correct. I have also tabbed out the break. Aren't I lovely?
A E F#m (2×) Bm A C#m Bm
 
 e|---------------------:---------------------------------------------|
 B|---------------------:---------------------------------------------|
 G|---------------------:---------------------------------------------|
 D|---7----9----4----4--:-9----9----7----7----11---11---9----9--------|
 A|-----7----7----4----4:---9----9----9----9----11---11---9----9------|
 E|---------------------:---------------------------------------------|

J?ai demandé à la lune
Et le soleil ne le sait pas
Je lui ai montré mes brûlures
Et la lune s?est moquée de moi
Et comme le ciel n?avait pas fière allure
Et que je ne guérissais pas
Je me suis dit quelle infortune
Et la lune s?est moquée de moi
J?ai demandé à la lune
Si tu voulais encore de moi
Elle m?a dit "j?ai pas l?habitude
De m?occuper des cas comme ça"
Et toi et moi
On était tellement sûr
Et on se disait quelques fois
Que c?était juste une aventure
Et que ça ne durerait pas
Dm Am (2×) C G C G
 
 e|-1-------0--------:-0-------------------------------3-------|
 B|-----3-------1----:-----1---3-------1-------3-----3---------|
 G|---2-------2------:---0---------4-------0-------4-----------|
 D|------------------:-----------5-------2-------5-------------|
 A|------------------:-----------------------------------------|
 E|------------------:-----------------------------------------|

[Dm]Je n?ai pas grand chose à te [Am]dire
[Dm]Et pas grand chose pour te faire [Am]rire
[C]Car j?imagine toujours le [G]pire
[C]Et le meilleur me fait [G]souffrir
J?ai demandé à la lune
Si tu voulais encore de moi
Elle m?a dit "j?ai pas l?habitude
De m?occuper des cas comme ça"
Et toi et moi
On était tellement sûr
Et on se disait quelques fois
Que c?était juste une aventure
Et que ça ne durerait pas

Important: The song above is NOT stored on the Chordie server. The original song is hosted at www.guitartabs.cc. Chordie works as a search engine and provides on-the-fly formatting. Chordie does not index songs against artists'/composers' will. To remove this song please click here.

Text color:
Chord color:
Chord grids: 
Font size:    
Page size: 

Am C Dm G
Rate #1 of 1 versions

Login - add to songbook

SHARE PAGE  




You need to log in to post comments