Guitar Tabs, Chords and Lyrics
Update 25:10. 13:00. Site is back up running again. Songbooks are recovered. Woring on getting search back up..


7 Weeks  InMe

7 weeks from white butterfly
Gtr I (D A D G B E) - 'Rhythm Guitar'
Gtr II (D A D G B E) - 'Second Guitar'
Gtr III (D A D G B E) - 'Clean Guitar'
Gtr IV (D A D G B E) - 'Piano'
Gtr V (D A D G B E) - 'Untitled'
Intro
Q=154
8/4
Gtr I
Q E Q Q Q E S S E S S E E E Q E Q Q E H.. E
 
 |-----------------------------------------|------------------------------|
 |-----------------------------------------|----------------13b15---------|
 |-----------------------------------------|------------------------------|
 |-----------------------------------------|------------------------------|
 |-----------------------------------------|------------------------------|
 |-0--10-12--0--0--0-10h12-0-10h12-0-12/15-|-0--10-12--0--0---------------|

Gtrs I, II
Q E Q Q Q E E E E E Q Q E Q Q Q E E E Q Q
 
 |------------------------------------|----------------------------------|
 |------------------------------------|----------------------------------|
 |--------------------------------10--|--------------------------12--10--|
 |-0--10-12--0--0--10h12-10h12-12-10--|-0--10-12--0--0--10h12-12-12--10--|
 |-0--10-12--0--0--10h12-10h12-12--8--|-0--10-12--0--0--10h12-12-10---8--|
 |-0--10-12--0--0--10h12-10h12-12-----|-0--10-12--0--0--10h12-12---------|

Verse
$
Gtr I
Q E Q Q Q E E E Q Q Q E Q Q Q E Q Q Q
 
 |---------------------------------|-------------------------------|
 |---------------------------------|-------------------------------|
 |---------------------------------|-------------------------------|
 |---------------------------------|-------------------------------|
 |------------------------------8--|------------------------10--8--|
 |-0--10-12--0--0--10h12-10h12-----|-0--10-12--0--0--10h12---------|

Gtr I[Bb5] [C5]
Q E Q Q Q E E E Q Q E E E E E E E E E E E E E E E E
 
 |---------------------------------|-----------------------------------------|
 |---------------------------------|-----------------------------------------|
 |---------------------------------|-----------------------------------------|
 |---------------------------------|-8-8-8-8-8-8-8-8-10-10-10-10-10-10-10-10-|
 |------------------------------8--|-8-8-8-8-8-8-8-8-10-10-10-10-10-10-10-10-|
 |-0--10-12--0--0--10h12-10h12-----|-8-8-8-8-8-8-8-8-10-10-10-10-10-10-10-10-|

|
| Gtr II
| Q E Q Q Q E E E Q Q E E E E E E Q E E E E E E Q
 
 |---------------------------------|-----------------------------------------|
 |---------------------------------|-----------------------------------------|
 |---------------------------------|-------10------------------12------------|
 |---------------------------------|-----8---8-------------10----10----------|
 |------------------------------8--|---8----------------10-------------------|
 |-0--10-12--0--0--10h12-10h12-----|-8---------------10----------------------|

Gtrs I, II
Q E Q Q Q E E E E E Q Q E Q Q Q E E E Q Q
 
 |------------------------------------|----------------------------------|
 |------------------------------------|----------------------------------|
 |--------------------------------10--|--------------------------12--10--|
 |-0--10-12--0--0--10h12-10h12-12-10--|-0--10-12--0--0--10h12-12-12--10--|
 |-0--10-12--0--0--10h12-10h12-12--8--|-0--10-12--0--0--10h12-12-10---8--|
 |-0--10-12--0--0--10h12-10h12-12-----|-0--10-12--0--0--10h12-12---------|

Chorus
[G5]Gtrs I, II[B5]
Q E E Q Q Q E E Q Q Q E E Q Q Q E E Q Q
 
 |---------------------------|---------------------------|
 |---------------------------|---------------------------|
 |---------------------------|---------------------------|
 |-5--5-5-5--5--5--5-5-5--5--|-9--9-9-9--9--9--9-9-9--9--|
 |-5--5-5-5--5--5--5-5-5--5--|-9--9-9-9--9--9--9-9-9--9--|
 |-5--5-5-5--5--5--5-5-5--5--|-9--9-9-9--9--9--9-9-9--9--|

[A5]Q E E Q Q Q E E Q Q
 
 |---------------------------|
 |---------------------------|
 |---------------------------|
 |-7--7-7-7--7--7--7-7-7--7--|
 |-7--7-7-7--7--7--7-7-7--7--|
 |-7--7-7-7--7--7--7-7-7--7--|

[D5] E E S S S S [Db5] E E S S S S [B5]E E S S S S [A5]E E S S S S
 
 |-----------------------------------------------------|
 |-----------------------------------------------------|
 |-----------------------------------------------------|
 |-12-12-x-x-x-x-11-11-x-x-x-x-9-9-x-x-x-x-7-7-x-x-x-x-|
 |-12-12-x-x-x-x-11-11-x-x-x-x-9-9-x-x-x-x-7-7-x-x-x-x-|
 |-12-12-x-x-x-x-11-11-x-x-x-x-9-9-x-x-x-x-7-7-x-x-x-x-|

[G5]Q E E Q Q Q E E Q Q [B5]Q E E Q Q Q E E Q Q
 
 |---------------------------|---------------------------|
 |---------------------------|---------------------------|
 |---------------------------|---------------------------|
 |-5--5-5-5--5--5--5-5-5--5--|-9--9-9-9--9--9--9-9-9--9--|
 |-5--5-5-5--5--5--5-5-5--5--|-9--9-9-9--9--9--9-9-9--9--|
 |-5--5-5-5--5--5--5-5-5--5--|-9--9-9-9--9--9--9-9-9--9--|

To Coda D.S. al Coda
[A5] Gtr I
Q E E Q Q Q E E Q Q Q E Q Q Q H..
 
 |---------------------------|--------------------------|
 |---------------------------|--------------------------|
 |---------------------------|--------------------------|
 |-7--7-7-7--7--7--7-7-7--7--|-----------------12\------|
 |-7--7-7-7--7--7--7-7-7--7--|-----------------12\------|
 |-7--7-7-7--7--7--7-7-7--7--|-0--10-12--0--0--12\------|

Interlude
&
[D5]Gtrs I, II[Db5] [B5] [A5]
E E S S S S E E S S S S E E S S S S E E S S S S
 
 |-----------------------------------------------------||
 |-----------------------------------------------------||
 |-----------------------------------------------------||
 |-12-12-x-x-x-x-11-11-x-x-x-x-9-9-x-x-x-x-7-7-x-x-x-x-||
 |-12-12-x-x-x-x-11-11-x-x-x-x-9-9-x-x-x-x-7-7-x-x-x-x-||
 |-12-12-x-x-x-x-11-11-x-x-x-x-9-9-x-x-x-x-7-7-x-x-x-x-||

Gtr III
E E E Q E E Q E E Q E E E E E E Q E E Q E E Q E E E
 
 |------------------------------|------------------------------|
 |------------------------------|------------------------------|
 |-------7------7------7--------|-------9------9------9--------|
 |---5------5------5------5-----|---9------9------9------9-----|
 |-----5------5------5------5---|-----9------9------9------9---|
 |-5--------------------------5-|-9--------------------------9-|

E E E Q E E Q E E Q E E E [D5] E E E E [Db5] E E E E [B5]E E E E [A5]E E E E
 
 |--------------------------------|-----------------------------------------|
 |--------------------------------|-----------------------------------------|
 |-------9------9-------9---------|-----------------------------------------|
 |---7------7-------7-------7-----|----12----12----11----11---9---9---7---7-|
 |-----7------7-------7-------7---|-------12----------11--------9-------7---|
 |-7----------------------------7-|-12----------11----------9-------7-------|

|
| Gtr IV
| W H H H H H H
 
 |--------------------------------|-----------------------------------------|
 |--------------------------------|-----------------------------------------|
 |--------------------------------|-----------------------------------------|
 |--------------------------------|-12----------11----------9-------7-------|
 |--------------------------------|-12----------11----------9-------7-------|
 |--------------------------------|-12----------11----------9-------7-------|

[G5]E E E Q E E Q E E Q E E E E E E Q E E Q E E Q E E E
 
 |--------------------------------|--------------------------------|
 |--------------------------------|--------------------------------|
 |---------7------7------7--------|-------9------9-------9---------|
 |-----5------5------5------5-----|---9------9-------9-------9-----|
 |-------5------5------5------5---|-----9------9-------9-------9---|
 |-5----------------------------5-|-9----------------------------9-|

|
| W.. Q W H H
 
 |--------------------------------|--------------------------------|
 |--------------------------------|--------------------------------|
 |--------------------------------|--------------------------------|
 |-5------------------------------|--------------------------------|
 |-5------------------------------|--------------------------------|
 |-5------------------------------|--------------------------------|

E E E Q E E Q E E Q E E E
 
 |------------------------------|
 |------------------------------|
 |-------9------9------9--------|
 |---7------7------7------7-----|
 |-----7------7------7------7---|
 |-7--------------------------7-|

|
| Gtr IV
| W
 
 |------------------------------|
 |------------------------------|
 |------------------------------|
 |------------------------------|
 |------------------------------|
 |------------------------------|

D5 Db5 B5 A5 N.C.
Gtr I
E E S S S S E E S S S S E E S S S S E E S S S S
 
 |-----------------------------------------------------|
 |-----------------------------------------------------|
 |-----------------------------------------------------|
 |-12-12-x-x-x-x-11-11-x-x-x-x-9-9-x-x-x-x-7-7-x-x-x-x-|
 |-12-12-x-x-x-x-11-11-x-x-x-x-9-9-x-x-x-x-7-7-x-x-x-x-|
 |-12-12-x-x-x-x-11-11-x-x-x-x-9-9-x-x-x-x-7-7-x-x-x-x-|

|
| H H H H
 
 |-----------------------------------------------------|
 |-----------------------------------------------------|
 |-----------------------------------------------------|
 |-12------------11------------9-----------7-----------|
 |-12------------11------------9-----------7-----------|
 |-12------------11------------9-----------7-----------|

[G5]Gtr I
W.. Q +W.. Q
 
 |--------------------------------|---------------------------------|
 |--------------------------------|---------------------------------|
 |--------------------------------|---------------------------------|
 |-5------------------------------|-(5)-----------------------------|
 |-5------------------------------|-(5)-----------------------------|
 |-5------------------------------|-(5)-----------------------------|

|
| Gtr III
| E E E Q E E Q E E Q E E E E E E Q E E Q E E Q E E E
 
 |--------------------------------|---------------------------------|
 |--------------------------------|---------------------------------|
 |---------7------7------7--------|----------9------9------9--------|
 |-----5------5------5------5-----|------9------9------9------9-----|
 |-------5------5------5------5---|--------9------9------9------9---|
 |-5----------------------------5-|--9----------------------------9-|

[G5] [G5] [A5]  
 
 PM--------------------------------------|

W. E E q E E E E E E E E E E E E E E E E
 
 |--------------------------------|---------------------------------|
 |--------------------------------|---------------------------------|
 |--------------------------------|---------------------------------|
 |-5----------------------5-5-5---|-5-5-5-5-5-5-5-5-7-7-7-7-7-7-7-7-|
 |-5----------------------5-5-5---|-5-5-5-5-5-5-5-5-7-7-7-7-7-7-7-7-|
 |-5----------------------5-5-5---|-5-5-5-5-5-5-5-5-7-7-7-7-7-7-7-7-|

|
| E E E Q E E Q E E Q E E E E E E Q E E Q E E Q E E E
 
 |--------------------------------|---------------------------------|
 |--------------------------------|---------------------------------|
 |--------7------7------7---------|-------9-------9-------9-------9-|
 |----5------5------5-------5-----|---9-------9-------9-------9-----|
 |------5------5------5-------5---|-----9-------9-------9-------9---|
 |-5----------------------------5-|-9-------------------------------|

Chorus
[G5]Gtrs I, II
Q E Q Q E H.. E Q E E Q Q Q E E Q Q
 
 |------------------------------||----------------------------------|
 |----------------13b15---------||o---------------------------------|
 |------------------------------||----------------------------------|
 |------------------------------||--5---5-5-5---5---5---5-5-5---5---|
 |------------------------------||o-5---5-5-5---5---5---5-5-5---5---|
 |-0--10-12--0--0---------------||--5---5-5-5---5---5---5-5-5---5---|

|
| W E E E Q E E Q E E Q E E E
 
 |------------------------------||----------------------------------|
 |------------------------------||o---------------------------------|
 |------------------------------||--------7-------7-------7---------|
 |------------------------------||----5-------5-------5-------5-----|
 |------------------------------||o-----5-------5-------5-------5---|
 |------------------------------||--5-----------------------------5-|

[G5]Q E E Q Q Q E E Q Q [A5]Q E E Q Q Q E E Q Q
 
 |---------------------------------|---------------------------------|
 |---------------------------------|---------------------------------|
 |---------------------------------|---------------------------------|
 |-9---9-9-9---9---9---9-9-9---9---|-7---7-7-7---7---7---7-7-7---7---|
 |-9---9-9-9---9---9---9-9-9---9---|-7---7-7-7---7---7---7-7-7---7---|
 |-9---9-9-9---9---9---9-9-9---9---|-7---7-7-7---7---7---7-7-7---7---|

|
| E E E Q E E Q E E Q E E E E E E Q E E Q E E Q E E E
 
 |---------------------------------|---------------------------------|
 |---------------------------------|---------------------------------|
 |-------9-------9-------9-------9-|-------9-------9-------9---------|
 |---9-------9-------9-------9-----|---7-------7-------7-------7-----|
 |-----9-------9-------9-------9---|-----7-------7-------7-------7---|
 |-9-------------------------------|-7-----------------------------7-|

[D5] E E S S S S [Db5] E E S S S S [B5]E E S S S S [A5]E E S S S S
 
 |----------------------------------------------------------||
 |---------------------------------------------------------o||
 |----------------------------------------------------------||
 |-12-12--x-x--x-x-11-11--x-x--x-x-9-9-x-x-x-x-7-7-x-x-x-x--||
 |-12-12--x-x--x-x-11-11--x-x--x-x-9-9-x-x-x-x-7-7-x-x-x-x-o||
 |-12-12--x-x--x-x-11-11--x-x--x-x-9-9-x-x-x-x-7-7-x-x-x-x--||

|
| E E E E E E E E E E E E E E E E
 
 |----------------------------------------------------------||
 |---------------------------------------------------------o||
 |----------------------------------------------------------||
 |----12------12------11------11-----9-----9-----7-----7----||
 |-------12--------------11------------9-----------7-------o||
 |-12--------------11--------------9-----------7------------||

Outro
[G5] [G5] [A5]  
 
 PM------------------------------------------|

W.. Q E E E E E E E E E E E E E E E E
 
 |----------------------|------------------------------------------------|
 |----------------------|------------------------------------------------|
 |----------------------|------------------------------------------------|
 |-5--------------------|--5--5--5--5--5--5--5--5--7--7--7--7--7--7--7-7-|
 |-5--------------------|--5--5--5--5--5--5--5--5--7--7--7--7--7--7--7-7-|
 |-5--------------------|--5--5--5--5--5--5--5--5--7--7--7--7--7--7--7-7-|

|
| Gtr II
| W W E E E E E E E E E E E E E E Q
 
 |----------------------|------------------------------------------------|
 |----------------------|-------15-------15-------15-------15-------15---|
 |----------------------|----14-------14-------14-------14-------14------|
 |----------------------|-12-------12-------12-------12-------12---------|
 |----------------------|------------------------------------------------|
 |----------------------|------------------------------------------------|

Gtrs I, II
Q E Q Q Q E E E E E Q Q E Q Q Q E E E Q Q
 
 |------------------------------------|----------------------------------|
 |------------------------------------|----------------------------------|
 |--------------------------------10--|--------------------------12--10--|
 |-0--10-12--0--0--10h12-10h12-12-10--|-0--10-12--0--0--10h12-12-12--10--|
 |-0--10-12--0--0--10h12-10h12-12--8--|-0--10-12--0--0--10h12-12-10---8--|
 |-0--10-12--0--0--10h12-10h12-12-----|-0--10-12--0--0--10h12-12---------|

[Bb5] [C5] 
Q E Q Q Q E E E E E Q
 
 |-----------------------------------------------|
 |-----------------------------------------------|
 |-------------------------------------------10--|
 |--0----10-12-----0-----0----10h12-10h12-12-10--|
 |--0----10-12-----0-----0----10h12-10h12-12--8--|
 |--0----10-12-----0-----0----10h12-10h12-12-----|

|
| Gtr II
| E E E E E E E E E E E E E E Q
 
 |-----------------------------------------------|
 |-----------------------------------------------|
 |-11-11-11-11-11-11-11-11-11-11-11-11-11-11-12--|
 |-----------------------------------------------|
 |-----------------------------------------------|
 |-----------------------------------------------|

Q E Q Q Q E E E Q Q
 
 |-----------------------------------------------|
 |-----------------------------------------------|
 |-------------------------------------12----10--|
 |--0----10-12-----0-----0----10s12-12-12----10--|
 |--0----10-12-----0-----0----10s12-12-10-----8--|
 |--0----10-12-----0-----0----10s12-12-----------|

|
| E E E E E E E E E E E E E E Q
 
 |-----------------------------------------------|
 |-----------------------------------------------|
 |-11-11-11-11-11-11-11-11-11-11-11-11-11-11-14--|
 |-----------------------------------------------|
 |-----------------------------------------------|
 |-----------------------------------------------|

Gtr I
Q E Q Q Q E E E E E Q
 
 |-----------------------------------------------|
 |-----------------------------------------------|
 |-------------------------------------------10--|
 |--0----10-12-----0-----0----10h12-10h12-12-10--|
 |--0----10-12-----0-----0----10h12-10h12-12--8--|
 |--0----10-12-----0-----0----10h12-10h12-12-----|

|
| Gtr II
| Q E Q Q Q E E E E E Q
 
 |-----------------------------------------------|
 |-----------------------------------------------|
 |-------------------------------------------10--|
 |--0----10-12-----0-----0----10h12-10h12-12-10--|
 |--0----10-12-----0-----0----10h12-10h12-12--8--|
 |--0----10-12-----0-----0----10h12-10h12-12-----|

|
| Gtr V
| E E E E E E E E E E E E E E Q
 
 |-----------------------------------------------|
 |-----------------------------------------------|
 |-11-11-11-11-11-11-11-11-11-11-11-11-11-11-12--|
 |-----------------------------------------------|
 |-----------------------------------------------|
 |-----------------------------------------------|

[Bb5] [C5]  
[E] [E] [E] [E] [E] [E] [E] [E] [E] [E] [E] [E] [E] [E] [E] [E]  
 
 |------------------------------------------------|
 |------------------------------------------------|
 |------------------------------------------------|
 |--8--8--8--8--8--8--8-8-10-10-10-10-10-10-10-10-|
 |--8--8--8--8--8--8--8-8-10-10-10-10-10-10-10-10-|
 |--8--8--8--8--8--8--8-8-10-10-10-10-10-10-10-10-|

|
| E E E E E E Q E E E E E E Q
 
 |------------------------------------------------|
 |------------------------------------------------|
 |-----------10---------------------12------------|
 |--------8-----8---------------10----10----------|
 |-----8---------------------10-------------------|
 |--8---------------------10----------------------|

|
| E E E E E E Q E E E E E E Q
 
 |------------------------------------------------|
 |------------------------------------------------|
 |-10-10-10-10-10-10-10----9--9--9--9--9--9--9----|
 |------------------------------------------------|
 |------------------------------------------------|
 |------------------------------------------------|

Gtr I
Q E Q Q Q E E E Q Q Q E Q Q E H.. E
 
 |---------------------------------|------------------------------*|
 |---------------------------------|----------------13b15---------*|
 |---------------------------------|------------------------------*|
 |---------------------------------|------------------------------*|
 |------------------------------8--|------------------------------*|
 |-0--10-12--0--0--10h12-10h12-----|-0--10-12--0--0---------------*|
 --------------------------------------------------------------------------------

Duration Legend
 
 ---------------
 W - whole; H - half; Q - quarter; E - 8th; S - 16th; T - 32nd; X - 64th; a - acciaccatura

+ - note tied to previous; . - note dotted; .. - note double dotted
Uncapitalized letters represent notes that are staccato (1/2 duration)
Irregular groupings are notated above the duration line
Duration letters will always appear directly above the note/fret number it represents the
duration for. Duration letters with no fret number below them represent rests. Multi-
bar rests are notated in the form Wxn, where n is the number of bars to rest for. Low
melody durations appear below the staff
Tablature Legend
 
 ----------------

h - hammer-on
p - pull-off
b - bend
pb - pre-bend
r - bend release (if no number after the r, then release immediately)
/\ - slide into or out of (from/to "nowhere")
s - legato slide
S - shift slide
- natural harmonic
(n) - artificial harmonic
n(n) - tapped harmonic
~ - vibrato
tr - trill
T - tap
TP - trem. picking
PM - palm muting
\n/ - tremolo bar dip; n = amount to dip
\n - tremolo bar down
n/ - tremolo bar up
/n\ - tremolo bar inverted dip
= - hold bend; also acts as connecting device for hammers/pulls
- volume swell (louder/softer)
x - on rhythm slash represents muted slash
o - on rhythm slash represents single note slash
Misc Legend
 
 -----------

| - bar
|| - double bar
||o - repeat start
o|| - repeat end
*| - double bar (ending)
: - bar (freetime)
$ - Segno
& - Coda
Tempo markers - = BPM(8/16=s8/s16), where s8 = swing 8ths, s16 = swing 16ths

Important: The song above is NOT stored on the Chordie server. The original song is hosted at www.guitartabs.cc. Chordie works as a search engine and provides on-the-fly formatting. Chordie does not index songs against artists'/composers' will. To remove this song please click here.

Text color:
Chord color:
Chord grids: 
Font size:    
Page size: 

A5 B5 Bb5 C5 D5 Db5 E G5
Rate #1 of 4 versions

Jango Player

Login - add to songbook

SHARE PAGE  



You need to log in to post comments