Guitar Tabs, Chords and Lyrics
Login is temporarily disabled for some users. Do not panic. Will be back in an hour or two. DO NOT REREGISTER!!


7 Weeks  InMe

....InMe - 7 Weeks....
Tabbed by: BrokenWhisper
Tuning: Drop D
Intro
 
 |--------------------------------------|
 |--------------------------------------|
 |--------------------------------------|
 |--------------------------------------|
 |-------------------------------8------|
 |--0-10-12-0-0--0h10h12-0h10h12--------|

[B]  
 
 |--------------------------------------|
 |--------------------------------------|
 |--------------------------------------|
 |--------------------------------------|
 |--------------------------------------|
 |--0-10-12-0-0--10b--------------------|
 |--------------------------------------|
 |--------------------------------------|
 |--------------------------------------|
 |--------------------------------------|
 |-------------------------------8------|
 |--0-10-12-0-0--0h10h12-0h10h12--------|
 |--------------------------------------|
 |--------------------------------------|
 |--------------------------------------|
 |--------------------------------------|
 |------------------------------10-10-8-|
 |--0-10-12-0-0--0h10h12-0h10h12--------|
 |--------------------------------------|
 |--------------------------------------|
 |--------------------------------------|
 |--------------------------------------|
 |-------------------------------8------|
 |--0-10-12-0-0--0h10h12-0h10h12--------|

Gtr 1
 
 |--------------------------------------|
 |--------------------------------------|
 |--------------------------------------|
 |----8-10-8----------10-12-10----------|
 |---8-------8------10--------10--------|
 |--8----------8--10------------20------|

Gtr 2
 
 |--------------------------------------|
 |--------------------------------------|
 |-10-10-10-10-10-10-10-9999999---------|
 |--------------------------------------|
 |--------------------------------------|
 |--------------------------------------|

Verse
 
 |--------------------------------------|
 |--------------------------------------|
 |--------------------------------------|
 |--------------------------------------|
 |-------------------------------8------|
 |--0-10-12-0-0--0h10h12-0h10h12--------|
 |--------------------------------------|
 |--------------------------------------|
 |--------------------------------------|
 |--------------------------------------|
 |------------------------------10-10-8-|
 |--0-10-12-0-0--0h10h12-0h10h12--------|
 |--------------------------------------|
 |--------------------------------------|
 |--------------------------------------|
 |--------------------------------------|
 |-------------------------------8------|
 |--0-10-12-0-0--0h10h12-0h10h12--------|
 |--------------------------------------|
 |--------------------------------------|
 |--------------------------------------|
 |----8-10-8----------10-12-10----------|
 |---8-------8------10--------10--------|
 |--8----------8--10------------20------|x2

Chorus
Gtr 1
 
 |--------------------------------------|
 |--------------------------------------|
 |--------------------------------------|
 |--5----9---7---1212-11-11-99--7--7-5--|
 |--5----9---7---1212-11-11-99--7--7-5--|
 |--5----9---7---1212-11-11-99--7--7-5--|
 |--------------|
 |--------------|
 |--------------|
 |--5----9---7--|
 |--5----9---7--|
 |--5----9---7--|
 |---------------------------------------|
 |---------------------------------------|
 |---------------------------------------|
 |---------------------------------------|
 |---------------------------------------|
 |--0-10-12-0-0-scratchdown/////////////-|

Gtr 2
 
 |----------------------|
 |----------------------|
 |-5--5----5----5-------|
 |--7----7----7----7----|
 |-----7----7----7------|
 |----------------------|
 |----------------------|
 |----------------------|
 |-4--4----4----4-------|
 |--6----6----6----6----|
 |-----5----5----5------|
 |----------------------|Gtr 2 x4 all the way throught the chorus.

Verse
 
 |--------------------------------------|
 |--------------------------------------|
 |--------------------------------------|
 |--------------------------------------|
 |-------------------------------8------|
 |--0-10-12-0-0--0h10h12-0h10h12--------|
 |--------------------------------------|
 |--------------------------------------|
 |--------------------------------------|
 |--------------------------------------|
 |------------------------------10-10-8-|
 |--0-10-12-0-0--0h10h12-0h10h12--------|
 |--------------------------------------|
 |--------------------------------------|
 |--------------------------------------|
 |--------------------------------------|
 |-------------------------------8------|
 |--0-10-12-0-0--0h10h12-0h10h12--------|
 |--------------------------------------|
 |--------------------------------------|
 |--------------------------------------|
 |----8-10-8----------10-12-10----------|
 |---8-------8------10--------10--------|
 |--8----------8--10------------20------|x2

Chorus
Chorus
Gtr 1
 
 |--------------------------------------|
 |--------------------------------------|
 |--------------------------------------|
 |--5----9---7---1212-11-11-99--7--7-5--|
 |--5----9---7---1212-11-11-99--7--7-5--|
 |--5----9---7---1212-11-11-99--7--7-5--|
 |--------------------------------------|
 |--------------------------------------|
 |--------------------------------------|
 |--5----9---7---1212-11-11-99--7--7----|
 |--5----9---7---1212-11-11-99--7--7----|
 |--5----9---7---1212-11-11-99--7--7----|

Gtr 2
 
 |----------------------|
 |----------------------|
 |-5--5----5----5-------|
 |--7----7----7----7----|
 |-----7----7----7------|
 |----------------------|
 |----------------------|
 |----------------------|
 |-4--4----4----4-------|
 |--6----6----6----6----|
 |-----5----5----5------|
 |----------------------|Gtr 2 x4 all the way throught the chorus.

Brake down
 
 |----------------------|
 |----------------------|
 |-5--5----5----5-------|
 |--7----7----7----7----|
 |-----7----7----7------|
 |----------------------|
 |----------------------|
 |----------------------|
 |-4--4----4----4-------|
 |--6----6----6----6----|
 |-----5----5----5------|
 |----------------------| x8
 |--------------------------------------|
 |--------------------------------------|
 |--------------------------------------|
 |--1212--1111-99-77-5------5-----------|
 |--1212--1111-99-77-5------5-----------|
 |--1212--1111-99-77-5------5-----------|

[B]  
 
 |--------------------------------------|
 |--------------------------------------|
 |--------------------------------------|
 |--55555555-77777777-------------------|
 |--55555555-77777777-------------------|
 |--55555555-77777777-0-10-12-0-0-10b---|

Chorus
Gtr 1
 
 |--------------------------------------|
 |--------------------------------------|
 |--------------------------------------|
 |--5----9---7---1212-11-11-99--7--7-5--|
 |--5----9---7---1212-11-11-99--7--7-5--|
 |--5----9---7---1212-11-11-99--7--7-5--|
 |--------------------------------------|
 |--------------------------------------|
 |--------------------------------------|
 |--5----9---7---1212-11-11-99--7--7-5--|
 |--5----9---7---1212-11-11-99--7--7-5--|
 |--5----9---7---1212-11-11-99--7--7-5--|

Gtr 2
 
 |----------------------|
 |----------------------|
 |-5--5----5----5-------|
 |--7----7----7----7----|
 |-----7----7----7------|
 |----------------------|
 |----------------------|
 |----------------------|
 |-4--4----4----4-------|
 |--6----6----6----6----|
 |-----5----5----5------|
 |----------------------|Gtr 2 x4 all the way throught the chorus.
 |--------------------------------------|
 |--------------------------------------|
 |--------------------------------------|
 |--55555555--77777777------------------|
 |--55555555--77777777------------------|
 |--55555555--77777777------------------|

Ending
first part or ending only gtr 1
 
 |--------------------------------------|
 |--------------------------------------|
 |--------------------------------------|
 |--------------------------------------|
 |-------------------------------8------|
 |--0-10-12-0-0--0h10h12-0h10h12--------|
 |--------------------------------------|
 |--------------------------------------|
 |--------------------------------------|
 |--------------------------------------|
 |------------------------------10-10-8-|
 |--0-10-12-0-0--0h10h12-0h10h12--------|
 |--------------------------------------|
 |--------------------------------------|
 |--------------------------------------|
 |--------------------------------------|
 |-------------------------------8------|
 |--0-10-12-0-0--0h10h12-0h10h12--------|
 |--------------------------------------|
 |--------------------------------------|
 |--------------------------------------|
 |----8-10-8----------10-12-10----------|
 |---8-------8------10--------10--------|
 |--8----------8--10------------20------|

gtr 2 on second part of ending
 
 |--------------------------------------|
 |--------------------------------------|
 |--11-11-11-11-11-11-11-11---11-11-11--|
 |--------------------------------------|
 |--------------------------------------|
 |--------------------------------------|
 |--------------------------------------|
 |--------------------------------------|
 |-11-11-12-12-12-11-11-11-11-11-11-11--|
 |--------------------------------------|
 |--------------------------------------|
 |--------------------------------------|
 |--------------------------------------|
 |-----------------------10-10-10-------|
 |-11-----11-11-11-11-11----------------|
 |--------------------------------------|
 |--------------------------------------|
 |--------------------------------------|
 |--------------------------------------|
 |--------------------------------------|
 |-11-11-11-11-11-11-11-11-11-11-11-11--|
 |--------------------------------------|
 |--------------------------------------|
 |--------------------------------------|
 |--------------------------------------|
 |--------------------------------------|
 |-11-10-10-10-10-10-10-10-99999999-----|
 |--------------------------------------|
 |--------------------------------------|
 |--------------------------------------|

gtr 1 on second part of ending
 
 |--------------------------------------|
 |--------------------------------------|
 |--------------------------------------|
 |--------------------------------------|
 |-------------------------------8------|
 |--0-10-12-0-0--0h10h12-0h10h12--------|
 |--------------------------------------|
 |--------------------------------------|
 |--------------------------------------|
 |--------------------------------------|
 |------------------------------10-10-8-|
 |--0-10-12-0-0--0h10h12-0h10h12--------|
 |--------------------------------------|
 |--------------------------------------|
 |--------------------------------------|
 |--------------------------------------|
 |-------------------------------8------|
 |--0-10-12-0-0--0h10h12-0h10h12--------|
 |--------------------------------------|
 |--------------------------------------|
 |--------------------------------------|
 |----8-10-8----------10-12-10----------|
 |---8-------8------10--------10--------|
 |--8----------8--10------------20------|

Outro
 
 |--------------------------------------|
 |--------------------------------------|
 |--------------------------------------|
 |--------------------------------------|
 |-------------------------------8------|
 |--0-10-12-0-0--0h10h12-0h10h12--------|

[B]  
 
 |--------------------------------------|
 |--------------------------------------|
 |--------------------------------------|
 |--------------------------------------|
 |--------------------------------------|
 |--0-10-12-0-0--0h10h12-0h10h12-10b----|

....End....

Important: The song above is NOT stored on the Chordie server. The original song is hosted at www.guitartabs.cc. Chordie works as a search engine and provides on-the-fly formatting. Chordie does not index songs against artists'/composers' will. To remove this song please click here.

Text color:
Chord color:
Chord grids: 
Font size:    
Page size: 

B
Rate #4 of 4 versions

Jango Player

Login - add to songbook

SHARE PAGE  



You need to log in to post comments