Guitar Tabs, Chords and Lyrics
Server problems seems to be fixed. Chordie has been experiencing problems with songs disappearing. These issues now seems to be fixed, but still verifying the fix. If you find anything strange, please email admin@chordie.com.


All Terrain Vehicle  InMe

Song: All Terrain Vehicle
Album: Herald Moth
Tuning: Standard (EADGBe)
 
 e|-2----2----0----0----3-----|
 B|-3----3----2----0----3-----|
 G|-4----2----2----0----0-----|
 D|-4----0----2----2----0-----|
 A|-2---------0----2----2-----|
 E|----------------0----3-----|

[Bm] [D] [A] [E] [G]  
Intro
[Bm] [D] [A] [Em]  
 
 e|-3-3--2-2h3p2p0--0-0-0-0-0-0--0-0-2-2-3-3-2-2---|
 B|-2-2--3-3--------2-2-3-3-2-2--0-0-0-0-0-0-0-0---|
 G|-4-4--2-2--------2-2-2-2-2-2--0-0-0-0-0-0-0-0---|
 D|-4-4--0-0--------2-2-2-2-2-2--2-2-2-2-2-2-2-2---|
 A|-2-2-------------0-0-0-0-0-0--2-2-2-2-2-2-2-2---|
 E|-x-x--------------------------0-0-0-0-0-0-0-0---|

Verse
[B]Practise your best fake sm[D]ile
And shrug off [A]all of your broken [E]dreams
[B]Watch the sun rise [D]slow
While you look [A]beyond all you[E] know
Chorus
[B]I been looking out my win[D]dow
Just trying to find s[A]omething
To re-ignite this[E] engine
[B]I been crawling through this [D]hardship
Like an all-terrai[A]n vehicle
Or a moth to a la[E]ntern
And I can't l[G]ie to my[A]self anymo[E]re,
We're never gonna mak[B]e it[D]
We're never [A]gonna make it[E]
Verse 2
[B]Practise a firm hands[D]hake
and learn to ma[A]ke cheap small-[E]talk
[B]Crush an ego s[D]mall
but still stand [A]tall through it [E]all
Chorus
[B]I been looking out my win[D]dow
Just trying to find s[A]omething
To re-ignite this[E] engine
[B]I been crawling through this [D]hardship
Like an all-terrai[A]n vehicle
Or a moth to a la[E]ntern
And I can't l[G]ie to my[A]self anymo[E]re,
We're never gonna mak[B]e it[D]
We're never [A]gonna make it[E]
Solo:
 
 e|-----------------------------------------------------|
 B|-12b-12r-10-7-7--7-8-10------------------------------|
 G|-------------------------9--9h11p--7h9p-5h7p-5\2/4---|
 D|-----------------------------------------------------|
 A|-----------------------------------------------------|
 E|-----------------------------------------------------|
 e|---------------------------------------14-15-17---|
 B|-----------12-15-17-18-18-18-17-15-15-------------|
 G|--------------------------------------------------|
 D|-----------------------------------------------------|
 A|-----------------------------------------------------|
 E|-----------------------------------------------------|
 e|--------------12-14-14-12-10-------------------------|
 B|-15-15--12-15----------------12----------------------|
 G|-----------------------------------------------------|
 D|-----------------------------------------------------|
 A|-----------------------------------------------------|
 E|-----------------------------------------------------|

Chorus
[B]I been looking out my win[D]dow
Just trying to find s[A]omething
To re-ignite this[E] engine
[B]I been crawling through this [D]hardship
Like an all-terrai[A]n vehicle
Or a moth to a la[E]ntern
We're never gonna mak[B]e it [D]
(Looking out my window)
We're never [A]gonna make it[E]
(Trying to find something to reignite this engine)
We're never gonna mak[B]e it[D]
(Ive been crawling through this hardship like)
We're never [A]gona make it[E]
(An all terrain vehicle, a moth to a lantern)
And I won't l[G]ie to my[A]self anymo[E]re,

Important: The song above is NOT stored on the Chordie server. The original song is hosted at www.guitartabs.cc. Chordie works as a search engine and provides on-the-fly formatting. Chordie does not index songs against artists'/composers' will. To remove this song please click here.

Text color:
Chord color:
Chord grids: 
Font size:    
Page size: 

A B Bm D E Em G
Rate #1 of 4 versions

Login - add to songbook

SHARE PAGE  



You need to log in to post comments