Guitar Tabs, Chords and Lyrics
Login is temporarily disabled for some users. Do not panic. Will be back in an hour or two. DO NOT REREGISTER!!


FireFly   InMe

 
 e-0-*7--------0-0-0-*7-------0-0
 b-0---*7------0-0-0---*7-----0-0
 g-2-----*7----2---2-----*7---2-- (x2)
 d-3-------*7--2---3-------*7-2--
 a-3-----------0---3----------0--
 e-------------------------------

 


 


 Bridge (missing you......)(distorted and loads of reverb)


 

 
 e-------------------------------------
 b-------------------------------------
 g-------------------------------------

 


 d-4--[55555555888888889999999977777777


 a-2--[33333333666666667777777755555555


 

 
 e-------------------------------------

 


 [all cbords in ] are palm muted lightly]


 


 

 
 e----------------------------------
 b----------------------------------
 g----------------------------------

 


 d-5555555588888888999999999999]-7-7


 a-3333333366666666777777777777]-5-5


 

 
 e----------------------------------

 


 [ Tab from: bttp://www.guitartabs.cc/tabs/i/inme/firefly_tab_ver_5.btml ] 


 

 
 e-----------------------------------------------------------------
 b-----------------------------------------------------------------
 g-----------------------------------------------------------------

 


 d-[555555558888888899999999777777775555555599999999]-9999999999999


 

 
 a-[333333336666666677777777555555553333333377777777]--------------
 e-----------------------------------------------------------------

 


 


 Chorous (distorted)


 


 

 
 e-0-0--------------
 d-0-0--------------
 g-1-1---4-4-2-2-2-2
 d-2-2---4-4-2-2-2-2 (x4)
 a-2-2---2-2-0-0-0-0
 e-0-0--------------

 


 


 Extended chorous


 


 

 
 e------
 d------
 g------

 


 b-5-8-9 (x2) played in the second chorous


 [a-5-6-7]e-3-6-7


 


 Mid-8


 


 

 
 e------------------
 d------------------
 g-----2------------
 b-2---2---2---5---2 (x2)
 a-3---0---3---5---2
 e-1-------1---3---0

 


 


 Chourous+extended chourous


 


 Interlude


 


 

 
 e----------------------------
 d-----7----------------------
 g---9----9-----7---------6---
 b-9----------9----9----7----7 (x3)
 a----------9---------7-------
 e----------------------------
 e----------------------------------
 d------7---------------------------
 g---9----9------7------------------
 b-9-----------9----9---------------
 a-----------9---------7-7-7-7-7-7-7
 e---------------------5-5-5-5-5-5-5


Important: The song above is NOT stored on the Chordie server. The original song is hosted at www.guitartabs.cc. Chordie works as a search engine and provides on-the-fly formatting. Chordie does not index songs against artists'/composers' will. To remove this song please click here.

This song is displayed as text-only. Transposing and tuning is only available for chordpro-songs.
Rate #1 of 2 versions

Jango Player

Login - add to songbook

SHARE PAGE  



You need to log in to post comments