Guitar Tabs, Chords and Lyrics
Login is temporarily disabled for some users. Do not panic. Will be back in an hour or two. DO NOT REREGISTER!!


So You Know   InMe

 
 |----5--------5------------5--------2---------|
 |--3---3----3----3-------3---3----0----0------|
 |4--------4--------4-4p0--------2--------2--2/|< (Slide to 4 in next bar)
 |---------------------------------------------|
 |---------------------------------------------|
 |---------------------------------------------|
 |------5~--------------------------------|
 |---3~-----------------------------------|
 |0~--------------------------------------|
 |------------------2nd time only >>--12\-| (1st time back to first riff)
 |------------------------------------12\-|
 |------------------------------------12\-|

 


 


 Chorus (00:39 00:59)


 


 Guitar 1


 


 

 
 |----------------------------------------------------|
 |----------------------------------------------------|
 |----------------------------------------------------|
 |0-0-0-0---0-0-0-0---0-0---5-5-5-5---5-5-5-5---5-5---|
 |0-0-0-0---0-0-0-0---0-0---5-5-5-5---5-5-5-5---5-5---|
 |0-0-0-0---0-0-0-0---0-0---5-5-5-5---5-5-5-5---5-5---|
 |------------------------------------------------------------|
 |------------------------------------------------------------|
 |-------------------------------------------------7-7-7-7-7-7|
 |9-9-9-9---7-7-7-7---7-7-------5-------5-------5--x-x-x-x-x-x|
 |9-9-9-9---7-7-7-7---7-7---5-5-5---5-5-5---5-5-5--5-5-5-5-5-5|
 |9-9-9-9---7-7-7-7---7-7---5-5-5---5-5-5---5-5-5--0-0-0-0-0-0|

 


 . . . . . .


 


 

 
 |----------------------------------------------------|
 |----------------------------------------------------|
 |----------------------------------------------------|
 |----------0-0-0-0---0-0---5-5-5-5---5-5-5-5---5-5---|
 |00000000--0-0-0-0---0-0---5-5-5-5---5-5-5-5---5-5---|
 |00000000--0-0-0-0---0-0---5-5-5-5---5-5-5-5---5-5---|

 


 ........


 


 

 
 |---------------------------------------------------------------------|
 |---------------------------------------------------------------------|
 |---------------------------------------------------------------------|
 |----9-------9-------7-------7---5--5--5~-----(7)--(7)--(7)~----------|
 |9-9-9-----9-9---7-7-7-----7-7---5--5--5~-----(7)--(7)--(7)~----------|
 |9-9-9-----9-9---7-7-7-----7-7---5--5--5~-----(7)--(7)--(7)~----------|

 


 . . . . . . ^


 play end of 3rd chorus only!


 


 Guitar 2


 (listen carefuly and you can hear these octave chords)


 


 

 
 |---------------------|--------------------------------------|
 |---------------------|--------------------------------------|
 |7--------6------4----|7-------9-------11-----9------6--6--6~|
 |x X40----x X8---x X16|x X16---x X16---x X8---x X8---x--x--x~|
 |5--------4------2----|5-------7-------9------7------4--4--4~|
 |---------------------|--------------------------------------|

 


 


 Intro/Verse (00:59 01:21)


 


 An extra guitar is included in the 2nd verse.


 Listen for notes that aren't palm muted.


 


 Guitar 2


 


 

 
 |-----------------------------------------------------------------|
 |-----------------------------------------------------------------|
 |4-(4)-4-4-4-4-4-4-4-4-4-4-4-4-4-4-7---7-7-7-7-7-7-6---6-6-6-6-6-6| X4
 |-----------------------------------------------------------------|
 |-----------------------------------------------------------------|
 |-----------------------------------------------------------------|

 


 . . . . . . . . . . . . . . . . . . . . . . . . . . .


 ^


 1st time only (4)


 


 


 Chorus (01:21 01:40)


 


 


 Middle Eight (1:40 02:05)


 


 Guitar 1


 


 

 
 |----------------------------|---------------------------------|
 |----------------------------|---------------------------------|
 |----0h7p0-6p0------------9v-|---------------------------------|
 |--------------7p0-7/9-9-----|5---5-5---5-5-5-7---7-7---7-7-7-9|
 |----------------------------|5---5-5---5-5-5-7---7-7---7-7-7-9|
 |----------------------------|5---5-5---5-5-5-7---7-7---7-7-7-9|
 |----------------------------|---------------------------------|
 |----------------------------|---------------------------------|
 |--0h7p0-6p0------------[9br]|---------------------------------|
 |------------7p0-7/9-9-------|5---5-5---5-5-5-7---7-7---7-7-7-9|
 |----------------------------|5---5-5---5-5-5-7---7-7---7-7-7-9|
 |----------------------------|5---5-5---5-5-5-7---7-7---7-7-7-9|
 |----------------------------|---------------------------------|
 |----------------------------|---------------------------------|
 |----0h7p0-6p0------------9v-|---------------------------------|
 |--------------7p0-7/9-9-----|5---5-5---5-5-5-7---7-7---7-7-7-9|
 |----------------------------|5---5-5---5-5-5-7---7-7---7-7-7-9|
 |----------------------------|5---5-5---5-5-5-7---7-7---7-7-7-9|
 |----------------------------|-------------------------------|
 |----------------------------|-------------------------------|
 |--0h7p0-6p0------------[9br]|-------------------------------|
 |------------7p0-7/9-9-------|5---5-5---5-5-5-7---7-7---7-7-7|
 |----------------------------|5---5-5---5-5-5-7---7-7---7-7-7|
 |----------------------------|5---5-5---5-5-5-7---7-7---7-7-7|
 |---------------------|
 |---------------------|
 |---------------------|
 |5--5--5~-----7--7--7~|
 |5--5--5~-----7--7--7~|
 |5--5--5~-----7--7--7~|


Important: The song above is NOT stored on the Chordie server. The original song is hosted at www.guitartabs.cc. Chordie works as a search engine and provides on-the-fly formatting. Chordie does not index songs against artists'/composers' will. To remove this song please click here.

This song is displayed as text-only. Transposing and tuning is only available for chordpro-songs.
Rate #1 of 3 versions

Jango Player

Login - add to songbook

SHARE PAGE  




You need to log in to post comments