Guitar Tabs, Chords and Lyrics
Login is temporarily disabled for some users. Do not panic. Will be back in an hour or two. DO NOT REREGISTER!!


Soldier  InMe

Soldier Tabbed by Underdose
Not exaclty 100%, but pretty close I think. Will keep it updated.
InMe
Guitar 1
Intro
Email: makio35@hotmail.com
H. E E E E E E E E E E
 
 E||-----------------------------------|-----2--2--2--2--2--2--2--|
 B||-----------------------------------|-----x--x--x--x--x--x--x--|
 G||-----------------------------x--4--|--L--4--4--4--4--4--4--4--|
 D||-----------------------------x--4--|--L--4--4--4--4--4--4--4--|
 A||-----------------------------x--2--|--L--2--2--2--2--2--2--2--|
 D||-----------------------------------|--------------------------|

E E E E E E E E E E Q E E E E
 
 --2--2--2--2---------------|--------------------------|
 --x--x--x--x---------------|--------------------------|
 --4--4--4--4--4s--6--6-----|--------6----6s--7--7--7--|
 --4--4--4--4---------------|--------------------------|
 --2--2--2--2--2s--4--4-----|--------4----4s--5--5--5--|
 ------------------------0--|--L--0--------------------|

E E E E E E E E E E Q S S E E E
 
 -----------------------------|----------------------------|
 -----------------------------|----------------------------|
 --7s--9--9--9--9s--11--------|----------------------------|
 -----------------------x--5--|--L--x--5----4h-5p-4-----5--|
 --5s--7--7--7--7s---9--x--5--|--L--x----------------5--5--|
 -----------------------x--5--|--L--x-------------------5--|

E E Q S S E E E E E E E E E E E
 
 ----------------------------|--------------------------|
 ----------------------------|--------------------------|
 ----------------------------|--------------------------|
 --L--x--5----4h-5p-4-----5--|--L--x--7--x--x--7--x--x--|
 --L--x----------------5--5--|--L--x-----x--x-----x--x--|
 --L--x-------------------5--|--L--x-----x--x-----x--x--|

[E] [E] [E] [E] [E] [E] [E] [E] [E] [E] [E] [E] [E] [E] [E] [E]  
 
 --------------------------|-----2--2--2--2--2--2--2--|
 --------------------------|-----x--x--x--x--x--x--x--|
 --------0-----5-----5--4--|--L--4--4--4--4--4--4--4--|
 --7--x--0--x--5--x--5--4--|--L--4--4--4--4--4--4--4--|
 -----x-----x-----x-----2--|--L--2--2--2--2--2--2--2--|
 -----x-----x-----x--------|--------------------------|

[E] [E] [E] [E] [E] [E] [E] [E] [E] [E] [E] [E] [E] [E] [E] [E]  
 
 --2--2--2--2---------------|---------------------------|
 --x--x--x--x---------------|---------------------------|
 --4--4--4--4--4s--6--6-----|--------6--x--6s--7--x--7--|
 --4--4--4--4---------------|-----------x---------x-----|
 --2--2--2--2--2s--4--4-----|--------4--x--4s--5--x--5--|
 ------------------------0--|--L--0-----x---------x-----|

E E E E Q E E E E Q S S S S E E
 
 -------------------------------|-----------------------------|
 -------------------------------|-----------------------------|
 -----7s--9--x--9g11~-----L-----|--------7----6h-7p-6---------|
 --x---------x---------------5--|--L--x---------------7-0--5--|
 --x--5s--7--x---7g9~-----L--5--|--L--x--------------------5--|
 --x---------x---------------5--|--L--x--------------------5--|

E E Q S S S S E E E E E E E E E E W
 
 -----------------------------|--------------------------|----------------------|
 -----------------------------|--------7--------5--------|--7brb----------------|
 --------9----7h-9p-7---------|--------------------------|----------------------|
 --L--x---------------7-0--5--|--L--x-----x--x-----x--x--|----------------------|
 --L--x--------------------5--|--L--x-----x--x-----x--x--|----------------------|
 --L--x--------------------5--|--L--x-----x--x-----x--x--|----------------------|

Verse
[E] [E] [E] [E] [E] [E] [E] [E] [E] [E] [E] [E] [E] [E] [E] [E]  
 
 --14--14-----14-----14-----14--|-----14-----12--12--12--12--12--|
 --15--15-----15-----15-----15--|-----15-----14--14--14--14--14--|
 -------------------------------|--------------------------------|
 -------------------------------|--------------------------------|
 -------------------------------|--------------------------------|
 -------------------------------|--------------------------------|

[E] [E] [E] [E] [E] [E] [E] [E] [E] [E] [E] [E] [E] [E] [E] [E]  
 
 --14--14-----14-----14-----14--|-----14-----12--12--12--12--12\--|
 --15--15-----15-----15-----15--|-----15-----14--14--14--14--14\--|
 -------------------------------|---------------------------------|
 -------------------------------|---------------------------------|
 -------------------------------|---------------------------------|
 -------------------------------|---------------------------------|

[E] [E] [E] [E] [E] [E] [E] [E] [E] [E] [E] [E] [E] [E] [E] [E]  
 
 --5--5-----5-----5-----5--|-----5-----5--5--5--5--5--|
 --5--5-----5-----5-----5--|-----5-----7--7--7--7--7--|
 --------------------------|--------------------------|
 --------------------------|--------------------------|
 --------------------------|--------------------------|
 --------------------------|--------------------------|

E E E E E E E E W
 
 --5--5-----5-----5-----5--|----------------------|
 --5--5-----5-----5-----5--|--7brb----------------|
 --------------------------|----------------------|
 --------------------------|----------------------|
 --------------------------|----------------------|
 --------------------------|----------------------|

[E] [E] [E] [E] [E] [E] [E] [E] [E] [E] [E] [E] [E] [E] [E] [E]  
 
 --14--14-----14-----14-----14--|-----14-----12--12--12--12--12--|
 --15--15-----15-----15-----15--|-----15-----14--14--14--14--14--|
 -------------------------------|--------------------------------|
 -------------------------------|--------------------------------|
 -------------------------------|--------------------------------|
 -------------------------------|--------------------------------|

[E] [E] [E] [E] [E] [E] [E] [E] [E] [E] [E] [E] [E] [E] [E] [E]  
 
 --14--14-----14-----14-----14--|-----14-----12--12--12--12--12\--|
 --15--15-----15-----15-----15--|-----15-----14--14--14--14--14\--|
 -------------------------------|---------------------------------|
 -------------------------------|---------------------------------|
 -------------------------------|---------------------------------|
 -------------------------------|---------------------------------|

[E] [E] [E] [E] [E] [E] [E] [E] [E] [E] [E] [E] [E] [E] [E] [E]  
 
 --5--5-----5-----5-----5--|-----5-----5--5--5--5--5--|
 --5--5-----5-----5-----5--|-----5-----7--7--7--7--7--|
 --------------------------|--------------------------|
 --------------------------|--------------------------|
 --------------------------|--------------------------|
 --------------------------|--------------------------|

Chorus
E E E E E E E E Q H. E E E E E E E E
 
 --5--5-----5-----5-----5--|--5-----------------|--------------------------|
 --5--5-----5-----5-----5--|--7-----------------|--------------------------|
 --------------------------|--------------------|--4--4--4--4--4--4--4--4--|
 --------------------------|--------------------|--4--4--4--4--4--4--4--4--|
 --------------------------|--------------------|--2--2--2--2--2--2--2--2--|
 --------------------------|--------------------|--------------------------|

E E E E E E E E E E Q E E E E
 
 ---------------------------|--------------------------|
 ---------------------------|--------------------------|
 --4--4--4--4--4s--6--6-----|--------6----6s--7--7--7--|
 --4--4--4--4---------------|--------------------------|
 --2--2--2--2--2s--4--4-----|--------4----4s--5--5--5--|
 ------------------------0--|--L--0--------------------|

E E E E E E E E E E Q S S E E E
 
 -----------------------------|----------------------------|
 -----------------------------|----------------------------|
 --7s--9--9--9--9s--11--------|----------------------------|
 -----------------------x--5--|--L--x--5----4h-5p-4-----5--|
 --5s--7--7--7--7s---9--x--5--|--L--x----------------5--5--|
 -----------------------x--5--|--L--x-------------------5--|

E E Q S S E E E E E E E E E E E
 
 ----------------------------|--------------------------|
 ----------------------------|--------------------------|
 ----------------------------|--------------------------|
 --L--x--5----4h-5p-4-----5--|--L--x--7--x--x--7--x--x--|
 --L--x----------------5--5--|--L--x-----x--x-----x--x--|
 --L--x-------------------5--|--L--x-----x--x-----x--x--|

[E] [E] [E] [E] [E] [E] [E] [E] [E] [E] [E] [E] [E] [E] [E] [E]  
 
 --------------------------|--------------------------|
 --------------------------|--------------------------|
 --------------5-----5--4--|--L--4--4--4--4--4--4--4--|
 --7--x--7--x--5--x--5--4--|--L--4--4--4--4--4--4--4--|
 -----x-----x--3--x--3--2--|--L--2--2--2--2--2--2--2--|
 -----x-----x-----x--------|--------------------------|

[E] [E] [E] [E] [E] [E] [E] [E] [E] [E] [E] [E] [E] [E] [E] [E]  
 
 ---------------------------|---------------------------|
 ---------------------------|---------------------------|
 --4--4--4--4--4s--6--6-----|--------6--x--6s--7--x--7--|
 --4--4--4--4---------------|-----------x---------x-----|
 --2--2--2--2--2s--4--4-----|--------4--x--4s--5--x--5--|
 ------------------------0--|--L--0-----x---------x-----|

E E E E Q E E E E Q S S S S E E
 
 -------------------------------|-----------------------------|
 -------------------------------|-----------------------------|
 -----7s--9--x--9g11~-----L-----|--------7----6h-7p-6---------|
 --x---------x---------------5--|--L--x---------------7-0--5--|
 --x--5s--7--x---7g9~-----L--5--|--L--x--------------------5--|
 --x---------x---------------5--|--L--x--------------------5--|

E E Q S S S S E E E E E E E E E E W
 
 -----------------------------|--------------------------|----------------------|
 -----------------------------|--------7--------5--------|--7brb----------------|
 --------9----7h-9p-7---------|--------------------------|----------------------|
 --L--x---------------7-0--5--|--L--x-----x--x-----x--x--|----------------------|
 --L--x--------------------5--|--L--x-----x--x-----x--x--|----------------------|
 --L--x--------------------5--|--L--x-----x--x-----x--x--|----------------------|

Verse
[E] [E] [E] [E] [E] [E] [E] [E] [E] [E] [E] [E] [E] [E] [E] [E]  
 
 --14--14-----14-----14-----14--|-----14-----12--12--12--12--12--|
 --15--15-----15-----15-----15--|-----15-----14--14--14--14--14--|
 -------------------------------|--------------------------------|
 -------------------------------|--------------------------------|
 -------------------------------|--------------------------------|
 -------------------------------|--------------------------------|

[E] [E] [E] [E] [E] [E] [E] [E] [E] [E] [E] [E] [E] [E] [E] [E]  
 
 --14--14-----14-----14-----14--|-----14-----12--12--12--12--12\--|
 --15--15-----15-----15-----15--|-----15-----14--14--14--14--14\--|
 -------------------------------|---------------------------------|
 -------------------------------|---------------------------------|
 -------------------------------|---------------------------------|
 -------------------------------|---------------------------------|

[E] [E] [E] [E] [E] [E] [E] [E] [E] [E] [E] [E] [E] [E] [E] [E]  
 
 --5--5-----5-----5-----5--|-----5-----5--5--5--5--5--|
 --5--5-----5-----5-----5--|-----5-----7--7--7--7--7--|
 --------------------------|--------------------------|
 --------------------------|--------------------------|
 --------------------------|--------------------------|
 --------------------------|--------------------------|

Verse second guitar
E E E E E E E E W E Q Q Q E
 
 --5--5-----5-----5-----5--|----------------------|----------------------------|
 --5--5-----5-----5-----5--|--7brb----------------|------------14--------------|
 --------------------------|----------------------|------------------14--------|
 --------------------------|----------------------|--12--12----------------12--|
 --------------------------|----------------------|----------------------------|
 --------------------------|----------------------|----------------------------|

E Q Q Q E E Q Q Q E
 
 ----------------------------|----------------------------|
 ------------12--------------|------------14--------------|
 ------------------14--------|------------------14--------|
 --12--12----------------12--|--12--12----------------12--|
 ----------------------------|----------------------------|
 ----------------------------|----------------------------|

E Q Q Q E E Q Q Q E
 
 ----------------------------|----------------------------|
 ------------17--------------|------------14--------------|
 ------------------14--------|------------------14--------|
 --12--12----------------12--|--12--12----------------12--|
 ----------------------------|----------------------------|
 ----------------------------|----------------------------|

TP
E Q Q Q E E Q Q Q E W
 
 ----------------------------|----------------------------|---------------------|
 ------------12--------------|------------14--------------|--17b----------------|
 ------------------14--------|------------------14--------|---------------------|
 --12--12----------------12--|--12--12----------------12--|---------------------|
 ----------------------------|----------------------------|---------------------|
 ----------------------------|----------------------------|---------------------|

Chorus
[E] [E] [E] [E] [E] [E] [E] [E] [E] [E] [E] [E] [E] [E] [E] [E]  
 
 --------------------------|---------------------------|
 --------------------------|---------------------------|
 --4--4--4--4--4--4--4--4--|--4--4--4--4--4s--6--6-----|
 --4--4--4--4--4--4--4--4--|--4--4--4--4---------------|
 --2--2--2--2--2--2--2--2--|--2--2--2--2--2s--4--4-----|
 --------------------------|------------------------0--|

E E Q E E E E E E E E E E E E
 
 --------------------------|-----------------------------|
 --------------------------|-----------------------------|
 --------6----6s--7--7--7--|--7s--9--9--9--9s--11--------|
 --------------------------|-----------------------x--5--|
 --------4----4s--5--5--5--|--5s--7--7--7--7s---9--x--5--|
 --L--0--------------------|-----------------------x--5--|

E E Q S S E E E E E Q S S E E E
 
 ----------------------------|----------------------------|
 ----------------------------|----------------------------|
 ----------------------------|----------------------------|
 --L--x--5----4h-5p-4-----5--|--L--x--5----4h-5p-4-----5--|
 --L--x----------------5--5--|--L--x----------------5--5--|
 --L--x-------------------5--|--L--x-------------------5--|

[E] [E] [E] [E] [E] [E] [E] [E] [E] [E] [E] [E] [E] [E] [E] [E]  
 
 --------------------------|--------------------------|
 --------------------------|--------------------------|
 --------------------------|--------------5-----5--4--|
 --L--x--7--x--x--7--x--x--|--7--x--7--x--5--x--5--4--|
 --L--x-----x--x-----x--x--|-----x-----x--3--x--3--2--|
 --L--x-----x--x-----x--x--|-----x-----x-----x--------|

[E] [E] [E] [E] [E] [E] [E] [E] [E] [E] [E] [E] [E] [E] [E] [E]  
 
 --------------------------|---------------------------|
 --------------------------|---------------------------|
 --L--4--4--4--4--4--4--4--|--4--4--4--4--4s--6--6-----|
 --L--4--4--4--4--4--4--4--|--4--4--4--4---------------|
 --L--2--2--2--2--2--2--2--|--2--2--2--2--2s--4--4-----|
 --------------------------|------------------------0--|

E E E E E E E E E E E E Q E E
 
 ---------------------------|-------------------------------|
 ---------------------------|-------------------------------|
 --------6--x--6s--7--x--7--|-----7s--9--x--9g11~-----L-----|
 -----------x---------x-----|--x---------x---------------5--|
 --------4--x--4s--5--x--5--|--x--5s--7--x---7g9~-----L--5--|
 --L--0-----x---------x-----|--x---------x---------------5--|

E E Q S S S S E E E E Q S S S S E E
 
 -----------------------------|-----------------------------|
 -----------------------------|-----------------------------|
 --------7----6h-7p-6---------|--------9----7h-9p-7---------|
 --L--x---------------7-0--5--|--L--x---------------7-0--5--|
 --L--x--------------------5--|--L--x--------------------5--|
 --L--x--------------------5--|--L--x--------------------5--|

E E E E E E E E W E E E E S S S S E E
 
 --------------------------|----------------------|-----------------------------|
 --------7--------5--------|--7brb----------------|-----------------------------|
 --------------------------|----------------------|-----------------------------|
 --L--x-----x--x-----x--x--|----------------------|--x--x--x--x--x-x-x-x--------|
 --L--x-----x--x-----x--x--|----------------------|--x--x--x--x--x-x-x-x-7s--9--|
 --L--x-----x--x-----x--x--|----------------------|--x--x--x--x--x-x-x-x--------|

Interlude - clean, let ring throughout
E E E Q E Q E E E Q E Q E E E Q E Q
 
 ------------------------|------------------------|------------------------|
 ------------------------|------------------------|------------------------|
 ------------------------|------------------------|------------------------|
 -----------7------------|-----------7------------|-----------7------------|
 -----9----------9--L----|-----5----------5--L----|-----7----------7--L----|
 --9-----9----------9----|--5-----5----------5----|--7-----7----------7----|

E E E Q E Q E E E Q E Q E E E Q E Q
 
 ------------------------|------------------------|------------------------|
 ------------------------|------------------------|------------------------|
 ------------------------|------------------------|------------------------|
 -----------0------------|-----------7------------|-----------7------------|
 -----0----------0--L----|-----9----------9--L----|-----5----------5--L----|
 --0-----0----------0----|--9-----9----------9----|--5-----5----------5----|

E E E Q E Q E E E Q E Q E E E Q E Q
 
 ------------------------|------------------------|------------------------|
 ------------------------|------------------------|------------------------|
 ------------------------|------------------------|------------------------|
 -----------7------------|-----------0------------|-----------7------------|
 -----7----------7--L----|-----0----------0--L----|-----9----------9--L----|
 --7-----7----------7----|--0-----0----------0----|--9-----9----------9----|

E E E Q E Q E E E Q E Q E E E Q E Q
 
 ------------------------|------------------------|------------------------|
 ------------------------|------------------------|------------------------|
 ------------------------|------------------------|------------------------|
 -----------7------------|-----------7------------|-----------0------------|
 -----5----------5--L----|-----7----------7--L----|-----0----------0--L----|
 --5-----5----------5----|--7-----7----------7----|--0-----0----------0----|

E E E Q E Q E E E Q E Q E E E Q E Q
 
 ------------------------|------------------------|------------------------|
 ------------------------|------------------------|------------------------|
 ------------------------|------------------------|------------------------|
 -----------7------------|-----------7------------|-----------7------------|
 -----9----------9--L----|-----5----------5--L----|-----7----------7--L----|
 --9-----9----------9----|--5-----5----------5----|--7-----7----------7----|

Distortion
E E E Q E Q E E E Q E Q E E E Q E Q
 
 ------------------------|------------------------|------------------------|
 ------------------------|------------------------|------------------------|
 ------------------------|------------------------|------------------------|
 -----------0------------|-----------7------------|-----------7------------|
 -----0----------0--L----|-----9--L-------9--L----|-----5--L-------5--L----|
 --0-----0----------0----|--9--L--9----------9----|--5--L--5----------5----|

E E E Q E Q E E E Q E Q E E E Q E Q
 
 ------------------------|------------------------|------------------------|
 ------------------------|------------------------|------------------------|
 ------------------------|------------------------|------------------------|
 -----------7------------|-----------0------------|-----------7------------|
 -----7--L-------7--L----|-----0--L-------0--L----|-----9--L-------9--L----|
 --7--L--7----------7----|--0--L--0----------0----|--9--L--9----------9----|

E E E Q E Q E E E Q E Q E E E Q E Q
 
 ------------------------|------------------------|------------------------|
 ------------------------|------------------------|------------------------|
 ------------------------|------------------------|------------------------|
 -----------7------------|-----------7------------|-----------0------------|
 -----5--L-------5--L----|-----7--L-------7--L----|-----0--L-------0--L----|
 --5--L--5----------5----|--7--L--7----------7----|--0--L--0----------0----|

E E E Q E Q E E E Q E Q E E E Q E Q
 
 ------------------------|------------------------|------------------------|
 ------------------------|------------------------|------------------------|
 ------------------------|------------------------|------------------------|
 -----------7------------|-----------7------------|-----------7------------|
 -----9--L-------9--L----|-----5--L-------5--L----|-----7--L-------7--L----|
 --9--L--9----------9----|--5--L--5----------5----|--7--L--7----------7----|

E E E Q E Q E E E Q E Q E E E Q E Q
 
 ------------------------|------------------------|------------------------|
 ------------------------|------------------------|------------------------|
 ------------------------|------------------------|------------------------|
 -----------0------------|-----------7------------|-----------7------------|
 -----0--L-------0--L----|-----9--L-------9--L----|-----5--L-------5--L----|
 --0--L--0----------0----|--9--L--9----------9----|--5--L--5----------5----|

PM PM PM PM PM PM PM PM PM PM PM
E E E E E E E E E E E E S S S S S S S S
 
 --------------------------|------------------------------|
 --------------------------|------------------------------|
 --------------------------|------------------------------|
 --7--7--7--7--7--7--7--7--|--7--7--7--7--x-x-x-x-x-x-x-x-|
 --7--7--7--7--7--7--7--7--|--7--7--7--7--x-x-x-x-x-x-x-x-|
 --7--7--7--7--7--7--7--7--|--7--7--7--7--x-x-x-x-x-x-x-x-|

Chorus
[E] [E] [E] [E] [E] [E] [E] [E] [E] [E] [E] [E] [E] [E] [E] [E]  
 
 --------------------------|---------------------------|
 --------------------------|---------------------------|
 --4--4--4--4--4--4--4--4--|--4--4--4--4--4s--6--6-----|
 --4--4--4--4--4--4--4--4--|--4--4--4--4---------------|
 --2--2--2--2--2--2--2--2--|--2--2--2--2--2s--4--4-----|
 --------------------------|------------------------0--|

E E Q E E E E E E E E E E E E
 
 --------------------------|-----------------------------|
 --------------------------|-----------------------------|
 --------6----6s--7--7--7--|--7s--9--9--9--9s--11--------|
 --------------------------|-----------------------x--5--|
 --------4----4s--5--5--5--|--5s--7--7--7--7s---9--x--5--|
 --L--0--------------------|-----------------------x--5--|

E E Q S S E E E E E Q S S E E E
 
 ----------------------------|----------------------------|
 ----------------------------|----------------------------|
 ----------------------------|----------------------------|
 --L--x--5----4h-5p-4-----5--|--L--x--5----4h-5p-4-----5--|
 --L--x----------------5--5--|--L--x----------------5--5--|
 --L--x-------------------5--|--L--x-------------------5--|

[E] [E] [E] [E] [E] [E] [E] [E] [E] [E] [E] [E] [E] [E] [E] [E]  
 
 --------------------------|--------------------------|
 --------------------------|--------------------------|
 --------------------------|--------------5-----5--4--|
 --L--x--7--x--x--7--x--x--|--7--x--7--x--5--x--5--4--|
 --L--x-----x--x-----x--x--|-----x-----x--3--x--3--2--|
 --L--x-----x--x-----x--x--|-----x-----x-----x--------|

[E] [E] [E] [E] [E] [E] [E] [E] [E] [E] [E] [E] [E] [E] [E] [E]  
 
 --------------------------|---------------------------|
 --------------------------|---------------------------|
 --L--4--4--4--4--4--4--4--|--4--4--4--4--4s--6--6-----|
 --L--4--4--4--4--4--4--4--|--4--4--4--4---------------|
 --L--2--2--2--2--2--2--2--|--2--2--2--2--2s--4--4-----|
 --------------------------|------------------------0--|

E E E E E E E E E E E E Q E E
 
 ---------------------------|-------------------------------|
 ---------------------------|-------------------------------|
 --------6--x--6s--7--x--7--|-----7s--9--x--9g11~-----L-----|
 -----------x---------x-----|--x---------x---------------5--|
 --------4--x--4s--5--x--5--|--x--5s--7--x---7g9~-----L--5--|
 --L--0-----x---------x-----|--x---------x---------------5--|

E E Q S S S S E E E E Q S S S S E E
 
 -----------------------------|-----------------------------|
 -----------------------------|-----------------------------|
 --------7----6h-7p-6---------|--------9----7h-9p-7---------|
 --L--x---------------7-0--5--|--L--x---------------7-0--5--|
 --L--x--------------------5--|--L--x--------------------5--|
 --L--x--------------------5--|--L--x--------------------5--|

Chorus outro
E E E E E E E E W E E E E E E E E
 
 --------------------------|----------------------|----------------------------|
 --------7--------5--------|--7brb----------------|--------------10--L--L--10--|
 --------------------------|----------------------|--------------11--L-----11--|
 --L--x-----x--x-----x--x--|----------------------|--9--9--9--9---9--9--9---9--|
 --L--x-----x--x-----x--x--|----------------------|--9--9--9--9---9--9--9---9--|
 --L--x-----x--x-----x--x--|----------------------|--9--9--9--9---9--9--9---9--|

[E] [E] [E] [E] [E] [E] [E] [E] [E] [E] [E] [E] [E] [E] [E] [E]  
 
 -------------------------------|---------------------------|
 --L--L--L--L--10---------------|---------------------------|
 --L-----L--L--11---------------|--7--x--6--x--6s--7--x--7--|
 --9--9--9--9---9s--11--11--11--|-----x-----x---------x-----|
 --9--9--9--9-------------------|--5--x--4--x--4s--5--x--5--|
 --9--9--9--9---9s--11--11--11--|---------------------------|

E E E E H E E E Q E Q E E E Q E Q
 
 ----------------------------|------------------------|------------------------|
 ----------------------------|------------------------|------------------------|
 --x--7s--9--x--9g11~--------|------------------------|------------------------|
 --x---------x---------------|-----------7------------|-----------7------------|
 --x--5s--7--x---7g9~--------|-----5--L-------5--L----|--L--5--L-------5--L----|
 ----------------------------|--5--L--5----------5----|--5--L--5----------5----|

E E E Q E Q E E E Q E Q
 
 ------------------------|------------------------|
 ------------------------|------------------------|
 ------------------------|------------------------|
 -----------7------------|-----------0------------|
 --L--5--L-------5--L----|-----0--L-------0--L----|
 --5--L--5----------5----|--0--L--0----------0----|

PM PM PM PM PM PM PM PM
[E] [E] [E] [E] [E] [E] [E] [E] [E] [E] [E] [E] [E] [E] [E] [E]  
 
 ------------------------------|------------------------------|
 -----------10--10--10-----10--|--10--------10--10--------10--|
 -----------11--11--11-----11--|--11--------11--11--------11--|
 --9--9--9--------------9------|------9--9----------9--9------|
 --9--9--9--------------9------|------9--9----------9--9------|
 --9--9--9--------------9------|------9--9----------9--9------|

Q Q E E E E E E E E E E E E
 
 -------------------------|------------------------------|
 -------------------------|------------------------------|
 ------------6s--7--7--7--|--7s--9--9--9--9s--11--11--x--|
 -------------------------|---------------------------x--|
 ------------4s--5--5--5--|--5s--7--7--7--7s---9---9--x--|
 --0----0-----------------|------------------------------|

> > > > > > > > > > > > > > > >
[E] [E] [E] [E] [E] [E] [E] [E] [E] [E] [E] [E] [E] [E] [E] [E]  
 
 --------------------------|--------------------------|
 --------------------------|--------------------------|
 --------------------------|--------------------------|
 --------------------------|--------------------------|
 --------------------------|--------------------------|
 --5--5--5--5--5--5--5--5--|--5--5--5--5--5--5--5--5--|

> > > > > > > > > > > > NH NH NH NH
E E E E E E E E E E E E E E E E Outro
 
 --------------------------|----------------------------------|-----|
 --------------------------|----------------------------------|-----|
 --------------------------|--------------7-----------------|-----|
 --------------------------|-------------------7------------|-----|
 --------------------------|-----------------------------9--|-----|
 --5--5--5--5--5--5--5--5--|--5--5--5--5------------9-------|-----|

E E E E E E E E H Q Q
 
 ---------------------------------|-----------------------|
 ---------------------------------|-----------------------|
 --/11----------------/11-----9~--|--L--------------------|
 -------12-----12-----------------|----------------/12----|
 ---------------------------------|-----------------------|
 ---------------------------------|-----------------------|

Q. Q. Q W E E H E E
 
 -------------------------|-------------------|----------------------------|
 -------------------------|-------------------|----------------------------|
 -------------------------|-------------------|--/11-----11br--------L--9--|
 --11------12-------------|-------------------|----------------------------|
 ------------------12~----|--L----------------|----------------------------|
 -------------------------|-------------------|----------------------------|

H Q Q Q. Q. Q Q. Q. Q
 
 -----------------------|-----------------------|------------------------|
 -----------------------|-----------------------|------------------------|
 --L--------------------|------------------9----|----------14------------|
 ----------------/12----|--11------12-----------|--12--------------12----|
 -----------------------|-----------------------|------------------------|
 -----------------------|-----------------------|------------------------|

Q. Q. Q Q. Q. Q
 
 ------------------------|-------------------------|
 ------------------------|-------------------------|
 --14--------------------|--/14------12------11----|
 ----------11------12----|-------------------------|
 ------------------------|-------------------------|
 ------------------------|-------------------------|

Q. Q. S S S S H. Q
 
 -------------------------------|---------------------|
 -------------------------------|---------------------|
 --9------11------11h-12p-11-9h-|--11-----------------|
 -------------------------------|---------------------|
 -------------------------------|---------------------|
 -------------------------------|---------------------|

E E E Q. Q E E E E E E E E
 
 ----------------------------|--------------------------------|
 ----------------------------|--------------------------------|
 -------------/11------------|--------------------------------|
 --12--12--------------12----|--12--12-----12-----11--9-------|
 ----------------------------|---------------------------12~--|
 ----------------------------|--------------------------------|

W W W W
 
 -------------------|-------------------|-------------------|-------------------|
 -------------------|-------------------|-------------------|-------------------|
 -------------------|-------------------|-------------------|-------------------|
 -------------------|-------------------|-------------------|-------------------|
 --L----------------|--L----------------|--L----------------|--L----------------|
 -------------------|-------------------|-------------------|-------------------|

W W W W
 
 -------------------|-------------------|-------------------|-------------------|
 -------------------|-------------------|-------------------|-------------------|
 -------------------|-------------------|-------------------|-------------------|
 -------------------|-------------------|-------------------|-------------------|
 --L----------------|--L----------------|--L----------------|--L----------------|
 -------------------|-------------------|-------------------|-------------------|

W W
 
 -------------------|-------------------||
 -------------------|-------------------||
 -------------------|-------------------||
 -------------------|-------------------||
 --L----------------|--L----------------||
 -------------------|-------------------||

Duration Legend
 
 ---------------

W - whole
H - half
Q - quarter
E - 8th
S - 16th
T - 32nd
X - 64th
. - note dotted
|-n-| - n-tuplets
Tablature Legend
 
 ----------------

L - tied note
x - dead note
g - grace note
(n) - ghost note
> - accentuded note
NH - natural harmonic
AH - artificial harmonic
TH - tapped harmonic
SH - semi harmonic
PH - pitch harmonic
h - hammer on
p - pull off
b - bend
br - bendRelease
pb - preBend
pbr - preBendRelease
brb - bendReleaseBend
\n/ - tremolo bar dip
\n - tremolo bar dive
-/n - tremolo bar Release up
/n\ - tremolo bar inverted dip
/n - tremolo bar return
-\n - tremolo bar Release down
S - shift slide
s - legato slide
/ - slide into from below or out of upwards
\ - slide into from above or out of downwards
~ - vibrato
W - wide vibrato
tr - trill
TP - tremolo picking
T - tapping
S - slap
P - pop
< - fade in
^ - brush up
v - brush down

Important: The song above is NOT stored on the Chordie server. The original song is hosted at www.guitartabs.cc. Chordie works as a search engine and provides on-the-fly formatting. Chordie does not index songs against artists'/composers' will. To remove this song please click here.

Text color:
Chord color:
Chord grids: 
Font size:    
Page size: 

E
Rate #1 of 2 versions

Jango Player

Login - add to songbook

SHARE PAGE  




You need to log in to post comments