Guitar Tabs, Chords and Lyrics
Server problems seems to be fixed. Chordie has been experiencing problems with songs disappearing. These issues now seems to be fixed, but still verifying the fix. If you find anything strange, please email admin@chordie.com.


Fuego  Intoxicados

INTRO
 
 e|-10--9-9--7-7-----------10--9-9--7-7--------------------------------------|
 B|--------------10-10--7----------------10-10--7--7/8--7/8--10---7/8--7-----|
 G|-----------------------------------------------------------------------9--| x2
 D|--------------------------------------------------------------------------|
 A|--------------------------------------------------------------------------|
 E|--------------------------------------------------------------------------|

VERSO
[D]Esta vez es ens[A]erio, no estoy minti[G]endo
Algo s[A]e prende fuego
[D]Sé que muchas veces d[A]ije que el lobo ven[G]ía
Pero esta vez el l[A]obo esta acá
[D]Se prende fuego mi p[A]elo, mi piano, mis d[G]iscos,
la ropa y el p[A]erro
[D]Puede ser que otra v[Em]ez no sea cierto
Pero si[G]ento como el fuego me qu[A]ema por dentro
INTRO
VERSO
SOLO *
 
 e|------------------------|
 B|-7-7--7s-5-5--5s--3--3--|
 G|------------------------|
 D|------------------------|
 A|------------------------|
 E|------------------------|
 e|-----------------------------------------------------------------------|
 B|-------------------3-----------------3--5--3--5s5s--3--3---------------|
 G|----------2--2/4--------------2-2/4-----------------------2-2/4/2/4/2--|
 D|--2--2/4---------------2-2/4-------------------------------------------|
 A|-----------------------------------------------------------------------|
 E|-----------------------------------------------------------------------|

PUENTE
[Bm]Dame un balde de a[Em]gua, o de ar[G]ena, o pas[A]ame el matafuegos
[F#m]Que el incendio está c[Em]erca y no voy a quem[G]arme sin [A]antes pelear
VERSO
[D]Se prende fuego mi p[A]elo, mi piano, mis d[G]iscos,
la ropa y el p[A]erro
[D]Puede ser que otra v[Em]ez no sea cierto
Pero si[G]ento como el fuego qu[A]ema por dentro
D / A / G / A x8
Fuego fuego fuego
Estamos enfermos... fuego fuego fuego
nico89

Important: The song above is NOT stored on the Chordie server. The original song is hosted at www.guitartabs.cc. Chordie works as a search engine and provides on-the-fly formatting. Chordie does not index songs against artists'/composers' will. To remove this song please click here.

Text color:
Chord color:
Chord grids: 
Font size:    
Page size: 

A Bm D Em F#m G
Rate #4 of 4 versions

Jango Player

Login - add to songbook

SHARE PAGE  




You need to log in to post comments