Guitar Tabs, Chords and Lyrics
Server problems seems to be fixed. Chordie has been experiencing problems with songs disappearing. These issues now seems to be fixed, but still verifying the fix. If you find anything strange, please email admin@chordie.com.


No tengo ganas  Intoxicados

INTRO
 
 e|---3-3-3-0-3-3-3----3/4------7-7-5-4-7-5---|
 B|-2-----------------------------------------|
 G|-------------------------------------------|
 D|-------------------------------------------|
 A|-------------------------------------------|
 E|-------------------------------------------|
 e|-1-1-1-1--1/3-0-------------1---0----------|
 B|----------------3-1-----1-3-------3-1-3----|
 G|-------------------------------------------|
 D|-------------------------------------------|
 A|-------------------------------------------|
 E|-------------------------------------------|

[C]No tengo ganas de se[Em]guir, pero tamp[E7]oco tengo ga[F]nas de parar
Tendría que pensar que me es[C]ta pasando, pero [Dm]es que estoy
Cansa[G]do de pensar. Podr[C]ía quedarme dur[Em]miendo todo día o pod[E7]ría
También trat[F]ar de encontrarte, podría dejarle mi dest[C]ino a la suerte
Y es probab[Dm]le que me vista y [G]salga a buscarte.
[Am]Vengo apostando todo [Am/G]lo que tengo a un c[Am/F#]aballo que nunca g[D]ana
[Dm]Voy a tener que de[F]jar este juego o cam[Dm]biar de caballo ma[G]ñana
Es que t[C]engo que dejar de pen[Em]sar en vos pero t[E7]engo también
Tantas g[F]anas de verte, voy a desconec[C]tarme por un rato y
De[Dm]jar que a mi destino lo ma[G]neje la suerte.
Intro x 1
Podría salir a buscarte o podría quedarme durmiendo
En casa no se bien que es lo que quiero pero creo
Que en el fondo se que es lo que pasa.
Cuanto tiempo vengo perdiendo hundiéndome en
Este agujero como extraño salir por las mañanas
A fumar bajo el sol con el perro.

Important: The song above is NOT stored on the Chordie server. The original song is hosted at www.guitartabs.cc. Chordie works as a search engine and provides on-the-fly formatting. Chordie does not index songs against artists'/composers' will. To remove this song please click here.

Text color:
Chord color:
Chord grids: 
Font size:    
Page size: 

Am Am/F# C D Dm E7 Em F G
Rate #1 of 4 versions

Login - add to songbook

SHARE PAGE  




You need to log in to post comments