Guitar Tabs, Chords and Lyrics
Server problems seems to be fixed. Chordie has been experiencing problems with songs disappearing. These issues now seems to be fixed, but still verifying the fix. If you find anything strange, please email admin@chordie.com.


Turn Around  Iration

 
 -------------------------------------------------------------------------------

TURN AROUND - Iration
 
 -------------------------------------------------------------------------------

Tabbed by: _Pintura_
Awesome song off of Iration's Time Bomb album, pick it up if you haven't already.
Pretty simple to play. All chords are strummed reggae/ska style.
Listen to the song for timing.
Entire song is comprised of four chords:
Fm e|-1-| and e|-8-|
B|-1-| B|-9-|
G|-1-| G|-10|
D|-3-| D|-10|
A|-3-| A|-8-|
E|-1-| E|---|
G# e|-4-|
B|-4-|
G|-5-|
D|-6-|
A|-6-|
e|-4-|
D# e|-6-|
B|-8-|
G|-8-|
D|-8-|
A|-6-|
E|---|
A#m e|-6-|
B|-6-|
G|-6-|
D|-8-|
A|-8-|
e|-6-|
Intro (distorted):
[Fm] [G#] [D#] [A#m]  
 
 e|--------1---x---|--------4---x---|--------6---x---|--------6---x---|
 B|--------1---x---|--------4---x---|--------8---x---|--------6---x---|
 G|--------1---x---|--------5---x---|--------8---x---|--------6---x---|
 D|--------3---x---|--------6---x---|--------8---x---|--------8---x---| x2
 A|--------3---x---|--------6---x---|--6--6--6---x---|--------8---x---|
 E|--1--1--1---x---|--4--4--4---x---|----------------|--6--6--6---x---|

Main Riff (clean):
Guitar 1 (lead):
 
 e|-------------8-8--11-11------------------------------|
 B|-9-9--11-11--------------11-11--9-11-11b13r11--9-11--|
 G|-----------------------------------------------------|
 D|-----------------------------------------------------| x2
 A|-----------------------------------------------------|
 E|-----------------------------------------------------|

End on:
e|-----|
B|-9~~-|
G|-----|
D|-----|
A|-----|
E|-----|
Guitar 2:
[Fm] [G#] [D#] [A#m]  
 
 e|---1---1---|---4---4---|---6---6---|---6---6---|
 B|---1---1---|---4---4---|---8---8---|---6---6---|
 G|---1---1---|---5---5---|---8---8---|---6---6---|
 D|---3---3---|---6---6---|---8---8---|---8---8---| x2
 A|---3---3---|---6---6---|---6---6---|---8---8---|
 E|---1---1---|---4---4---|-----------|---6---6---|

First Verse:
It's hard I know...
[Fm] [G#] [D#] [A#m]  
 
 e|---1---1---|---4---4---|---6---6---|---6---6---|
 B|---1---1---|---4---4---|---8---8---|---6---6---|
 G|---1---1---|---5---5---|---8---8---|---6---6---|
 D|---3---3---|---6---6---|---8---8---|---8---8---| x2
 A|---3---3---|---6---6---|---6---6---|---8---8---|
 E|---1---1---|---4---4---|-----------|---6---6---|

I'm changing my ways...
[Fm] [G#] [D#] [A#m]  
 
 e|---1---1---|---4---4---|---6---6---|---6---6---|
 B|---1---1---|---4---4---|---8---8---|---6---6---|
 G|---1---1---|---5---5---|---8---8---|---6---6---|
 D|---3---3---|---6---6---|---8---8---|---8---8---| x2
 A|---3---3---|---6---6---|---6---6---|---8---8---|
 E|---1---1---|---4---4---|-----------|---6---6---|

I'm dying inside...
[Fm] [G#] [D#] [A#m]  
 
 e|---8--8----8--8----|---4-4---4-4---|---6-6---6-6---|---6-6---6-6---|
 B|---9--9----9--9----|---4-4---4-4---|---8-8---8-8---|---6-6---6-6---|
 G|---10-10---10-10---|---5-5---5-5---|---8-8---8-8---|---6-6---6-6---|
 D|---10-10---10-10---|---6-6---6-6---|---8-8---8-8---|---8-8---8-8---| x2
 A|---8--8----8--8----|---6-6---6-6---|---6-6---6-6---|---8-8---8-8---|
 E|-------------------|---4-4---4-4---|---------------|---6-6---6-6---|

Making it clear before...
[Fm] [G#] [D#] [A#m]  
 
 e|---8--8----8--8----|---4-4---4-4---|---6-6---6-6---|---6-6---6-6---|
 B|---9--9----9--9----|---4-4---4-4---|---8-8---8-8---|---6-6---6-6---|
 G|---10-10---10-10---|---5-5---5-5---|---8-8---8-8---|---6-6---6-6---|
 D|---10-10---10-10---|---6-6---6-6---|---8-8---8-8---|---8-8---8-8---| x2
 A|---8--8----8--8----|---6-6---6-6---|---6-6---6-6---|---8-8---8-8---|
 E|-------------------|---4-4---4-4---|---------------|---6-6---6-6---|

Chorus:
Guitar 1:
[Fm] [G#] [D#] [A#m]  
 
 e|--/8----8---8-8---|--/4---4--44--|--/6---6--66--|--/6---6--66--|
 B|--/9----9---9-9---|--/4---4--44--|--/8---8--88--|--/6---6--66--|
 G|--/10---10--1010--|--/5---5--55--|--/8---8--88--|--/6---6--66--|
 D|--/10---10--1010--|--/6---6--66--|--/8---8--88--|--/8---8--88--| x4
 A|--/8----8---8-8---|--/6---6--66--|--/6---6--66--|--/8---8--88--|
 E|------------------|--/4---4--44--|--------------|--/6---6--66--|

Guitar 2 (lead):
 
 e|-------------8-8--11-11------------------------------|
 B|-9-9--11-11--------------11-11--9-11-11b13r11--9-11--|
 G|-----------------------------------------------------|
 D|-----------------------------------------------------| x4
 A|-----------------------------------------------------|
 E|-----------------------------------------------------|

End on:
e|-----|
B|-9~~-|
G|-----|
D|-----|
A|-----|
E|-----|
Fill (distorted):
 
 e|---------------------|---------------------|--11-11---11-11--|
 B|--11-9-8-------------|--11-9-8-------------|--8--8----8--8---|
 G|---------8-10b12r10--|---------8-10b12r10--|-----------------|
 D|---------------------|---------------------|-----------------| x2
 A|---------------------|---------------------|-----------------|
 E|---------------------|---------------------|-----------------|

Verse 2 and Chorus 2 are the same as the first.
Solo (distorted):
(Special thanks to forum user MrBillion for helping with this)
 
 e|---------------------|---------------------|--11-11---11-11--|
 B|--11-9-8-------------|--11-9-8-------------|--8--8----8--8---|
 G|---------8-10b12r10--|---------8-10b12r10--|-----------------|
 D|---------------------|---------------------|-----------------| x2
 A|---------------------|---------------------|-----------------|
 E|---------------------|---------------------|-----------------|
 e|--8----------------------|-------------------------|
 B|--11b13----11-11-11--11--|--8-9-11-9-8-------------|
 G|-------------------------|-------------8-10b12r10--|
 D|-------------------------|-------------------------|
 A|-------------------------|-------------------------|
 E|-------------------------|-------------------------|
 e|---------------------------|------------------------|
 B|---------------------------|-----8--11-11-11--9--8--|
 G|--8h10-8h10-8h10/12--10-8--|--10--------------------|
 D|---------------------------|------------------------|
 A|---------------------------|------------------------|
 E|---------------------------|------------------------|
 e|--8-------------|--11--9--8~~--|
 B|--11b13--9--8~~-|--------------|
 G|----------------|--------------|
 D|----------------|--------------|
 A|----------------|--------------|
 E|----------------|--------------|

*Play faintly*
 
 e|-------------8--|---------------8--11-11/13~~-(\11/13~~~)--|
 B|------9--11-----|------8--9--11----------------------------|
 G|--10------------|--10--------------------------------------|
 D|----------------|------------------------------------------|
 A|----------------|------------------------------------------|
 E|----------------|------------------------------------------|

Repeat Chorus once w/o lead guitar, then once normally.
Ending (distorted):
 
 e|---------------------|---------------------|--11-11---11-11--|
 B|--11-9-8-------------|--11-9-8-------------|--8--8----8--8---|
 G|---------8-10b12r10--|---------8-10b12r10--|-----------------|
 D|---------------------|---------------------|-----------------| x2
 A|---------------------|---------------------|-----------------|
 E|---------------------|---------------------|-----------------|

[Fm] [G#] [D#] [A#m] [Fm]  
 
 e|----------11---11-11-11--|------------------------------|
 B|--/11~~~-----8----8--8---|------------------------------|
 G|-------------------------|---------8--------------------|
 D|-------------------------|-3---6---8---8---3------------|
 A|-------------------------|-3---6---6---8---3-*sustain*--|
 E|-------------------------|-1---4-------6---1------------|

************************************
| / slide up
| \ slide down
| h hammer-on
| p pull-off
| ~ vibrato
| + harmonic
| x Mute note
| B Bend
| pb Pre-bend
| br Bend release
| pbr Pre-bend release
| brb Bend release bend
************************************

Important: The song above is NOT stored on the Chordie server. The original song is hosted at www.guitartabs.cc. Chordie works as a search engine and provides on-the-fly formatting. Chordie does not index songs against artists'/composers' will. To remove this song please click here.

Text color:
Chord color:
Chord grids: 
Font size:    
Page size: 

A#m D# Fm G#
Rate #1 of 2 versions

Jango Player

Login - add to songbook

SHARE PAGE  




You need to log in to post comments