Guitar Tabs, Chords and Lyrics
Major upgrade!! After one year development the new version of Chordie is now online! Please give feedback.


Be Quick or Be Dead   Iron Maiden

 
 G|----------------------------------------------
 D|------------------------------------3h0-1h0---
 A|--------------------------------------------3-
 E|-0-3-333-3333-33-333-0-3-333-333-33----------- 

 


 [Verse] ('Covered in sinners...')


 

 
 G|-----------------------------------------------
 D|-----------------------------------------------
 A|---------------------5-6---------------1-3-6-5-
 E|-1-33333-33333-33333-----1-33333-33333--------- 

 


 


 [Pre-Cborus] ('You got to watch them...')


 

 
 G|-------------------------------------------------
 D|-------------------------------------------------
 A|-33333-33333-11111-------33333-33333-11111-6-5-6-
 E|-------------------11111-------------------------

 


 


 [Cborus] ('Be Quick or be dead...')


 

 
 G|-------------------------------------------------------
 D|------------1-1-0--------------1-1-0-----7-5-0---5-3-0-
 A|------------------3------------------3-----------------
 E|-3-33-33-33---------3-33-33-33---------3-------3-------
 G|-------------------------------------------------------
 D|---3-1-0---1-1-0-----7-5-0---5-3-0---3-1-0---1-1-0-----
 A|-----------------3---------------------------------3---
 E|-3-------3---------3-------3-------3-------3-----------

 


 


 [ Tab from: bttp://www.guitartabs.cc/tabs/i/iron_maiden/be_quick_or_be_dead_btab.btml ] 


 [Bridge] ('See who's ruling all our lives...')


 

 
 G|--------------------------------------------------------------------------
 D|--------------------------------------------------------------------------
 A|--------------------------------------------------------------------------
 E|-11111111-33333333-11111111-333333333-11111111-33333333-11111111-333333333
 G|-------------------------------------------------------
 D|-------------------------------------------------------
 A|-1---3---1--------1---3---1-3-5---6---8----------------
 E|---1---3---1-3333---1---3------------------------------

 


 


 [Guitar Solo 1] 


 

 
 G|---------------------------------------------------------------------------------
 D|----------------------------------1-1-0------------------------------------------
 A|-3-1-3-1-3-1-3-1-3-1--3-1-3-1-3-1-------3-1-3-1-3-1-3-1-3-1--3-1-3-1-3-1-3-----0-
 E|---------------------------------------------------------------------------3-3---

 


 


 [Guitar Solo 2] 


 

 
 G|---------------------------------------------------------------------------------
 D|----------------------------------3-3-2------------------------------------------
 A|-5-3-5-3-5-3-5-3-5-3--5-3-5-3-5-3-------5-3-5-3-5-3-5-3-5-3--5-3-5-3-5-3-5-0-0-2-
 E|---------------------------------------------------------------------------------


Important: The song above is NOT stored on the Chordie server. The original song is hosted at www.guitartabs.cc. Chordie works as a search engine and provides on-the-fly formatting. Chordie does not index songs against artists'/composers' will. To remove this song please click here.

This song is displayed as text-only. Transposing and tuning is only available for chordpro-songs.
Rate #1 of 2 versions

Login - add to songbook

SHARE PAGE  




You need to log in to post comments