Guitar Tabs, Chords and Lyrics
Major upgrade!! After one year development the new version of Chordie is now online! Please give feedback.


The Wicker Man  Iron Maiden

by Iron Maiden
Tabbed by: Marcello Tridenti (tryxxx@infinito.it)
This is my first tab so it is a quite simplified version of the song, if you have
corrections or the solo write me.
Chords used in this song:
E5 C5 G5 G5* D5
 
 e---|------------------------------|
 B---|------------------------------|
 G---|--9-----5-----------12-----7--|
 D---|--9-----5-----5-----12-----7--|
 A---|--7-----3-----5-----10-----5--|
 E---|--------------3---------------|

Riff 1 (Intro/Verse)
 
 e---|--------------------------------|---------------------------------|
 B---|--------------------------------|---------------------------------|
 G---|--9-----9-----------------------|--9-----9------------------------|
 D---|--9-----9-----------------------|--9-----9------------------------|
 A---|--7-----7-----------------------|--7-----7------------------------|
 E---|-----------------0--0--0--0--0--|-----------------0--0--0--0--0---|
 e---|--------------------------------|-------------------|
 B---|--------------------------------|-------------------|
 G---|--9-----9-----------------------|--5--5-----12--12--|
 D---|--9-----9-----------------------|--5--5-----12--12--|
 A---|--7-----7-----------------------|--3--3-----10--10--|
 E---|-----------------0--0--0--0--0--|-------------------|

Riff 2 (Bridge)
 
 e---|--------|-----------------------|--------|---------------------|
 B---|--------|-----------------------|--------|---------------------|
 G---|--7-----|--5-----12--12--11--9--|--7-----|-----5-----9--9--5---|
 D---|--7-----|--5-----12--12--11--9--|--7-----|-----5-----9--9--5---|
 A---|--5-----|--3-----10--10--9---7--|--5-----|-----3-----7--7--3---|
 E---|--------|-----------------------|--------|---------------------|

Riff 3 (Chorus)
[E5] [C5]  
 
 e---|--------------------------|--------------------------|
 B---|--12--10--12--10--12------|--12--10--12--10--12------|
 G---|----------------------12--|----------------------12--|
 D---|--------------------------|--------------------------|
 A---|--------------------------|--------------------------|
 E---|--------------------------|--------------------------|

[G5] [D5]  
 
 e---|--------------------------|--------------------------|
 B---|--12--10--12--10--12------|--12--10--12--13--12------|
 G---|----------------------12--|----------------------12--|
 D---|--------------------------|--------------------------|
 A---|--------------------------|--------------------------|
 E---|--------------------------|--------------------------|

E5 G5*
 
 e---|--------------------------|--------------------------|
 B---|--12--10--12--10--12------|--12--10--12--10--12------|
 G---|----------------------12--|----------------------12--|
 D---|--------------------------|--------------------------|
 A---|--------------------------|--------------------------|
 E---|--------------------------|--------------------------|

[C5] [D5]  
 
 e---|--------------------------|--------------------------|
 B---|--12--10--12--10--12------|--12--10--12--13--12------|
 G---|----------------------12--|----------------------12--|
 D---|--------------------------|--------------------------|
 A---|--------------------------|--------------------------|
 E---|--------------------------|--------------------------|

Riff 4 (Outro)
 
 e---|--------|--------|--------|--------|
 B---|--------|--------|--------|--------|
 G---|--9-----|--5-----|--------|--7-----|
 D---|--9-----|--5-----|--5-----|--7-----|
 A---|--7-----|--3-----|--5-----|--5-----|
 E---|--------|--------|--3-----|--------|


Important: The song above is NOT stored on the Chordie server. The original song is hosted at www.guitartabs.cc. Chordie works as a search engine and provides on-the-fly formatting. Chordie does not index songs against artists'/composers' will. To remove this song please click here.

Text color:
Chord color:
Chord grids: 
Font size:    
Page size: 

C5 D5 E5 G5
Rate #1 of 3 versions

Login - add to songbook

SHARE PAGE  




You need to log in to post comments