Guitar Tabs, Chords and Lyrics
Server problems seems to be fixed. Chordie has been experiencing problems with songs disappearing. These issues now seems to be fixed, but still verifying the fix. If you find anything strange, please email admin@chordie.com.


In the Rushes  Islands

In the Rushes tab
Em* - x79987
Bm* - 799777
[Am]Bm [-]- [577555]x24432
Em - 022000
C - x32010
[F#]B -[-] x[244322]24442
Dm - x57765
A/C# - x4765x
E5 - 022xxx
B/D# - x6987x
[G] [c-]h] [355433]G6/E[/cb] - 05543x
C* - x35553
Dm* - xx0231
G* - 320033
Am* - x02210
Asus4 - x02230
EmaddC - 022010
Em7 - 022030
[cb]Csus4/F[/cb] - x8101088
E5 - x799xx
Fo - xx3x6x
Go - xx5x8x
Ao - xx7x10x
[cb]Csus4/G[/cb] - 33356x
Eno5 - x7x99x
Esus4no5 - x7x910x
[A]E [-]- [577655]022100
[cb]F#sus4/C#[/cb] - x44422
[cb]F#sus4/C#[/cb]* - xxx677
[cb]F#/C#[/cb] - xxx676
D - xx0232
C5 - x355xx
A5 - 577xxx
G5 - 355xxx
A* - x02220
Em* Bm* Am |
 
 e|-------------------------------14--14h17p14----14---14\12--12--12-14-12-------|
 B|-12--12h15p12----12---12-15/17--------------17--------------------------15-12-|
 G|--------------14--------------------------------------------------------------|
 D|------------------------------------------------------------------------------|
 A|------------------------------------------------------------------------------|
 E|------------------------------------------------------------------------------|

[Bm] [Em(1)]  
 
 ------------------------------|
 ---15\12-12\10-10\7-7/12-12---|
 14----------------------------|
 ------------------------------|
 ------------------------------|
 ------------------------------|

[Riff A] 
 
 e|-------------|
 B|-------------|
 G|-------------|
 D|-------------|
 A|-------------|
 E|-0-0-0-2-3-0-|

[C] [F#] [B]  
Bare[Dm]foot, passing [A/C#]through
I knelt [Am]down to [Bm]get a better [E5]view
Of what [Dm]grew there; well what [A/C#]grew there?
Em* B/D#
Scared, heard a terrible sound
Am B Em*
Lay down, played dead, that's when I heard it clearer
[Riff A] C F# B
In the rushes a voice said
[Dm]You can walk around [Am]forever
G [cb]G6/E[/cb] Am
And never notice me
[Am]A little closer in the [Dm]rushes
G C*
Hiding down among the reeds
C Dm* G* Em
A seed, A seed
C Am* G C*
A seed, A seed
[F#]Ohh[B]hhh
Em* B/D#
I swallowed, it digested quick
Em* Bm Em
But not enough to not make me sick, I lost it
[Riff A] C F# B
It tasted like a light going off inside my mind
Dm A/C# Am Bm* Em*
[For tbis section, play tbe cbords (listen for timing) followed by tbis riff:] 
[Riff B] 
 
 e|-0-0-0-1-------|
 B|---------0-3-1-|
 G|---------------|
 D|---------------|
 A|---------------|
 E|---------------|

Am* C Em [Riff B]
Am* C Em [Riff B]
Am* C Em [Riff B]
Am* C Em [Riff B] [Riff B] [Riff B] Am*
La la la la la, la la la la la la la, la la la la la la la, la la la la la la la la
Dm* Asus4 EmaddC Am*
Then suddenly I was outside of harm's way, forgetting the desire to remember
Dm* Am* Em7 Am*
Trans tourist vanished, finished damaged playback, I felt myself unraveling at a racetrack
Dm* Em7
I felt myself unraveling at a racetrack
Am Dm [cb]Csus4/F[/cb] E5
Fo Go Ao
C [cb]Csus4/G[/cb] C [cb]Csus4/G[/cb] C [cb]Csus4/G[/cb]
Then I coughed up blood Scraped it off my tongue Sucked it off my thumb
Am* F Em Am* Dm Bm*
And it was rotten, ohhhh Oooooh
[Riff C] 
Eno5 Esus4no5 Eno5 Esus4no5 Eno5
 
 e|---------------------------------------|
 B|-9-9-9-10-10-9-9----9-9-9-10-10-9-9----|
 G|-9-9-9-9--9--9-9----9-9-9-9--9--9-9----|
 D|---------------------------------------|
 A|-7-7-7-7--7--7-7----7-7-7-7--7--7-7----|
 E|---------------------------------------|

Em* B/D#
Care, to care; I knelt down but you weren't there
Am Bm* Em*
Anymore; I was pushed into a bush
[Riff A] C F# B
In the rushes on the screen, it was all acting
Dm A/C# Am Bm* Em*
[Riff A] C F# B
[Riff A var 1] 
 
 e|-------------|
 B|-------------|
 G|-------------|
 D|-1-1-1-2-4-1-|
 A|-------------|
 E|-------------|

[Am] [B] [Em]  
[Riff A var 2] 
 
 e|-------------|
 B|-------------|
 G|-0-0-0-2-4-0-|
 D|-------------|
 A|-------------|
 E|-------------|

[C] [F#] [B]  
B F# A E G F# [cb]F#sus4/C#[/cb]
[Bum] [bum] [bum] [bum] [bum] [bum] [bum]  
[cb]F#sus4/C#[/cb]* [cb]F#/C#[/cb]
[Riff D] 
[D] [Asus4]  
 
 e|---------------------------------|
 B|---------------3-----------------|
 G|-2-2-2-2-2-2-2-2-------------2-2-|
 D|-0-0-0-0-0-2-2---2-2-2-2-2-2-2-2-|
 A|-----------------0-0-0-0-0-2-----|
 E|---------------------------------|

[Riff D] x2
[Riff D] 
Cellos cellos cellos cellos, cellos cellos cellos cellos, cellos cellos cellos
cellos, cellos cellos cellos cellos
I can't believe it, believe that I had seen it
Remember who was in my arms, remember when I had arms
C G* D Am*
It's like a dream the way that it unfolded
C G* D C5 A5
Like I'm here in the rushes without knowing
[Riff D] 
I kissed it but I must admit, I missed it now I do f-f-forget
C G* D
Like I'd been in the rushes without knowing
[G5] [A5] You are for[D]gotten
[G5] [A5]You've been for[D]gotten
[G5] [A5]You've been for[D]gotten
[G5] [A5]You are for[D]gotten
[G5] [A5]You are for[D]gotten
[G5] [A5]You are for[D]gotten
[G5] [A5]You are for[D]gotten
[G5] [A5]You are for[D]gotten
[G5] [A5]You are for[D]gotten
G* A*
You are all forgo-
[D]Oooooh [G5]ooooo[A5]oh
[D]Oooooh [G5]ooooo[A5]oh
[D]Oooooh [G5] [A5]You are for[D]gott[G5]en[A5]
C G* A* A* D
You are all forgotten

Important: The song above is NOT stored on the Chordie server. The original song is hosted at www.guitartabs.cc. Chordie works as a search engine and provides on-the-fly formatting. Chordie does not index songs against artists'/composers' will. To remove this song please click here.

Text color:
Chord color:
Chord grids: 
Font size:    
Page size: 

A A/C# A5 Am Asus4 B Bm C D Dm E5 Em F# G G5
Rate #1 of 2 versions

Jango Player

Login - add to songbook

SHARE PAGE  



You need to log in to post comments